Song name
# A B C D E F G H I J K L M N O P Q R S T U V W X Y Z

Unrest - Imperial tab

Help us improve GuitareTab! Take a short survey!
#----------------------------------PLEASE NOTE---------------------------------#
#This file is the author's own work and represents their interpretation of the #
#song. You may only use this file for private study, scholarship, or research. #
#------------------------------------------------------------------------------##
Song:  Imperial
Band:  Unrest
Album: Imperial FFrr
Transcribed by: Jake Stout (jstout@uoguelph.ca)

Hey, here's the beggining of Imperial, by Unrest.  Nice, simple and beautiful

E ---------------------------------------------------------------------------|
a --9--9-----9--9-----9-----8--8-----8-----8--7--7-----7--7-----7------------|
d --------8--------8-----6--------6-----6-----------6--------6---------------|
b ---------------------------------------------------------------------------|
c ---------------------------------------------------------------------------|
e ---------------------------------------------------------------------------|

E ---------------------------------------------------------------------------|
a -----6-----6-----6---------------------------------------------------------|
d --4-----4-----4------------------------------------------------------------|
b ---------------------------------------------------------------------------|
c ---------------------------------------------------------------------------|
e ---------------------------------------------------------------------------|
Related for Imperial tab