Song name
# A B C D E F G H I J K L M N O P Q R S T U V W X Y Z

Unsane - Swim tab

Artist - Unsane
Album - Scattered, Smothered & Covered
Song - Swim
Year - 1995
Guitarist - Chris Spencer
Tabber - Alowishus
Date - 20/09/2012

This is the final track on the album. It's fairly simple and is in Drop D. There are 
only really three parts. The post-chorus leads the end of the song. The chorus is probably 
the most complex part of the song to work out. It sounds right to me but see for yourself. Enjoy!

Verse

e|-----------------|-----------------|-----------------|-----------------|
B|-----------------|-----------------|-----------------|-----------------|
G|-----------------|-----------------|-----------------|-----------------|
D|-0-0-0-0-0-0-0-0-|-6-6-6-6-6-6-6-6-|-1-1-1-1-1-1-1-1-|-4---4---4---4---|
A|-0-0-0-0-0-0-0-0-|-6-6-6-6-6-6-6-6-|-1-1-1-1-1-1-1-1-|-4---4---4---4---|
D|-0-0-0-0-0-0-0-0-|-6-6-6-6-6-6-6-6-|-1-1-1-1-1-1-1-1-|-4---4---4---4---|

Chorus

e|-----------------|-----------------|-----------------|-----------------|
B|-6-6-6-6-6-6-6-6-|-3-3-3-3-3-3-3-3-|-6-6-6-6-6-6-6-6-|-8/9-8/9-8/9-8/9-|
G|-----------------|-----------------|-----------------|-----------------|
D|-4-4-4-4-4-4-4-4-|-1-1-1-1-1-1-1-1-|-4-4-4-4-4-4-4-4-|-6/7-6/7-6/7-6/7-|
A|-----------------|-----------------|-----------------|-----------------|
D|-----------------|-----------------|-----------------|-----------------|

Post-Chorus

e|-----------------|-----------------|
B|-----------------|-----------------|
G|-----------------|-----<7>---------|
D|-0-------0-0-0---|-<7>-------------|
A|-0-------0-0-0---|-----------------|
D|-0-------0-0-0---|-----------------|
                    Sometimes there are harmonics.

End
Tap to rate this tab
# A B C D E F G H I J K L M N O P Q R S T U V W X Y Z