Song name
# A B C D E F G H I J K L M N O P Q R S T U V W X Y Z

Unsane - Commited tab

Committed
by Unsane

standard tuning

this song is in tony hawk 1...I don't know why no one ever tabbed it before

e-------------0-------------|
b---------------0-----------|
g-----------------0~~-------|x2
d-2-------------------------|
a-2-------------------------|
E-0-------------------------|

e-------------------------------------|
b-------------------------------------|
g-------------------------------------|x4
d-------------------------------------|
a-----17--16--15--14-13---------------|
E---12--12--12--12--------------------|

e--------------------------------------------------------------------------------|
b--------------------------------------------------------------------------------|
g--------------------------------------------------------------------------------|x2
d--------------------------------------------------------------------------------|
a----3-3--3------3--3------3--3--4--4--4-----3-3--3------3--3------3--3--4--4--6-|
E--0h1-1--1--0h1-1--1--0h1-1--1--2--2--2---0h1-1--1--0h1-1--1--0h1-1--1--2--2--4-|

e--------------------------------|
b--------------------------------|
g--------------------------------|
d--------------------------------|x4
a--------------7-----------------|
E---0----6-5-6------0----6-5-6^--|


e-------------0-------------|
b---------------0-----------|
g-----------------0~~-------|x2
d-2-------------------------|
a-2-------------------------|
E-0-------------------------|

e-------------------------------------|
b-------------------------------------|
g-------------------------------------|x4
d-------------------------------------|
a-----17--16--15--14-13---------------|
E---12--12--12--12--------------------|


e--------------------------------------------------------------------------------|
b--------------------------------------------------------------------------------|
g--------------------------------------------------------------------------------|x2
d--------------------------------------------------------------------------------|
a----3-3--3------3--3------3--3--4--4--4-----3-3--3------3--3------3--3--4--4--6-|
E--0h1-1--1--0h1-1--1--0h1-1--1--2--2--2---0h1-1--1--0h1-1--1--0h1-1--1--2--2--4-|

e--------------------------------|
b--------------------------------|
g--------------------------------|
d--------------------------------|x4
a--------------7-----------------|
E---0----6-5-6------0----6-5-6^--|

e-----------------------------------------------------|
b-----------------------------------------------------|
g-----------------------------------------------------|
d--2-2-2--5-5--2-2-2--7-7--2-2-2--5-5-----------------|x2
a--0-0-0--3-3--0-0-0--5-5--0-0-0--3-3--6-5-0-3-5-3----|
E-----------------------------------------------------|

e-------------------------------------|
b-------------------------------------|
g-------------------------------------|x4
d-------------------------------------|
a-----17--16--15--14-13---------------|
E---12--12--12--12--------------------|

e--------------------------------------------------------------------------------|
b--------------------------------------------------------------------------------|
g--------------------------------------------------------------------------------|x2
d--------------------------------------------------------------------------------|
a----3-3--3------3--3------3--3--4--4--4-----3-3--3------3--3------3--3--4--4--6-|
E--0h1-1--1--0h1-1--1--0h1-1--1--2--2--2---0h1-1--1--0h1-1--1--0h1-1--1--2--2--4-|

e--------------------------------|
b--------------------------------|
g--------------------------------|
d--------------------------------|x4
a--------------7-----------------|
E---0----6-5-6------0----6-5-6^--|

e-----------------------------------------------------|
b-----------------------------------------------------|
g-----------------------------------------------------|
d--2-2-2--5-5--2-2-2--7-7--2-2-2--5-5-----------------|x2
a--0-0-0--3-3--0-0-0--5-5--0-0-0--3-3--6-5-0-3-5-3----|
E-----------------------------------------------------|

e---------------------------------|
b---------------------------------|
g---------------------------------|
d---------------------------------|
a----3-3-3---3-3-3---3-3-3-4-4-4--|
E--0h1-1-1-0h1-1-1-0h1-1-1-2-2-2--|

this is my first tab but i think it sounds pretty close
Tap to rate this tab
 
# A B C D E F G H I J K L M N O P Q R S T U V W X Y Z