Song name
# A B C D E F G H I J K L M N O P Q R S T U V W X Y Z

Unseen - Such Tragedy tab

ive noticed that there arent many unseen tabs so ive decided to tab some

INTRO/VERSE
e------------------|
B------------------|these are right chords just listen to song for
G------------------|the strum pattern
D-9-5-7------------|
A-9-5-7------------|x2
E-7-3-5------------|

VERSE PT 2
e-----------------------------------------|
B-----------------------------------------|right notes...not sure bout
G-----------------------------------------|number of hits
D-9-5555-4444-5555-4444-5555-7777---------|
A-9-5555-4444-5555-4444-5555-7777---------|
E-7-3333-2222-3333-2222-3333-5555---------|

INTO/VERSE x2
VERSE PT 2 x1

CHORUS
e---------------------------------------|
B---------------------------------------|
G-----777-----------------------x-------|4 2nd time stop at
D-999-777-777-555--------------- D--7---|and play the harmonic
A-999-555-777-555--------------- A--7---|thing or whatever it is
E-777-----555-333--------------- E--5---|when u dont put pressure on the
                                       strings
INTRO/VERSE x2
VERSE PT 2 x1
CHORUS x4(same thing about the 2nd time)

the little solo thing not 100% on it
e-------------------------|
B-------------------------|
G-------------------------|
D----9--------------------|
A---9---------------------|
E-7-----------------------|

e-------------------------|
B-------------------------|
G-------------------------|
D-9-7-5-4-9____-----------|
A-9-7-5-4-9____-----------|
E-7-5-3-2-7____-----------|

thats pretty much it it may not be 100% but it close enough that u can
figure it all out
Tap to rate this tab
# A B C D E F G H I J K L M N O P Q R S T U V W X Y Z