Guitaretab - guitar tabs
Song name
# A B C D E F G H I J K L M N O P Q R S T U V W X Y Z

Unseen - So Sick Of You tab

The Unseen
"So Sick Of You"
Explode

/= slide   .= palm mute  h= hammer on   p= pull off
^= bend    ~= tremello pick

Intro

Lead Guitar
e:--------------------------------------------------|
B:--------------------------------------------------|
G:-2----2/5-4-5-2---2/5-4-5-7-5-4-0---2-2/5-4-5--2--|
D:--------------------------------------------------|
A:--------------------------------------------------|
E:--------------------------------------------------|

Rythmn Guitar
e:-------------------------------------------------|
B:-------------------------------------------------|
G:-2---------------2----------------------------2--|
D:-2---------------2--------------5-------------2--|
A:-0---------------0--------------5-------------0--|
E:--------------------------------3----------------|

Verse

Lead Guitar
e:--------------------------------------------------|
B:--------------------------------------------------|
G:-2---2-5-4-5-2--2---2--5-4h5p4p0----2---2-5-4-5-2-|
D:--------------------------------------------------|
A:--------------------------------------------------|
E:--------------------------------------------------|

Rythmn Guitar
e:-555555555555555555555555555553333333333333333555
B:-555555555555555555555555555553333333333333333555
G:-666666666666666666666666666664444444444444444666
D:-777777777777777777777777777775555555555555555777
A:-777777777777777777777777777775555555555555555777
E:-555555555555555555555555555553333333333333333555
    .............. ............. ............... ..

Chorus

Both Guitars
e:1--111------------------------------------------|
B:1--111------------------------------------------|
G:2--222--5--55---2----222------------------------|
D:3--333--5--55---2----222------------------------|
A:3--333--3--33---0----000------------------------|
E:1--111------------------------------------------|

Chorus Ending

Both Guitars
e:1--111----------3----333------------------------|
B:1--111----------3----333------------------------|
G:2--222--5--55---4----444------------------------|
D:3--333--5--55---5----555------------------------|
A:3--333--3--33---5----555------------------------|
E:1--111----------3----333------------------------|

Bridge
[ Tab from: http://www.guitaretab.com/u/unseen/133167.html ]
Both Gutiars
e:------------------------------------------------|
B:------------------------------------------------|
G:-9-99999--7-55555-7777--------------------------|
D:-9-99999--7-55555-7777--------------------------|
A:-7-77777--5-33333-5555--------------------------|
E:------------------------------------------------|

Second Bridge

Both Guitars
e:------------------------------------------------|
B:------------------------------------------------|
G:-9999--9999-9-7-5-5-555--7777-------------------|
D:-9999--9999-9-7-5-5-555--7777-------------------|
A:-7777--7777-7-5-3-3-333--5555-------------------|
E:------------------------------------------------|

End Solo (As close as I could get it, you can just
tweak with it, if you want.)

Lead Guitar
(Begining of Solo)
   ~~~~~~~~~~~~~~~~~~~~~~~~~~~ ~~~~~~~~~~~~~~~~~~~~
e:-------------------------------------------------|
B:-------------------------------------------------|
G:-7h99999999999997h9999999999-12121212111111121212
D:-------------------------------------------------|
A:-------------------------------------------------|
E:-------------------------------------------------|


(Cont.)
   ~~~~~~~~~~~~~~~~~~~~
e:-------------------------------------------------|
B:-------------------------------------------------|
G:-12999999111111121212----------------------------|
D:-------------------------------------------------|
A:-------------------------------------------------|
E:-------------------------------------------------|

(End)
   ~~~~~~~~~~~~~~
e:-------------------------------------------------|
B:-------------------------------------------------|
G:-12121212111111---14^----------------------------|
D:-------------------------------------------------|
A:-------------------------------------------------|
E:-------------------------------------------------|

Song Ending
e:--------------------------------------------------|
B:--------------------------------------------------|
G:--9----99--7-5--55--99999999999999999999999999999-|
D:--9----99--7-5--55--99999999999999999999999999999-|
A:--7----77--5-3--33--77777777777777777777777777777-|
E:--------------------------------------------------|

(Cont.)
e:------------------------------------------------|
B:------------------------------------------------|
G:--9-9/////////////////////////////////////////--|
D:--9-9////////////////////////////////////////---|
A:--7-7///////////////////////////////////////----|
E:------------------------------------------------|

This is as close as I could get it. I think its pretty dead on. I really learned this 
off the WARPED TOUR 2003 DVD (they do a good job and you
can hear the instruments well). The CD will also help you if you have problems (The CD 
called EXPLODE).
Related for So Sick Of You tab
Advertisement will be closed in 10 seconds