Song name
# A B C D E F G H I J K L M N O P Q R S T U V W X Y Z

Unseen - Waste Of Time tab

Help us improve GuitareTab! Take a short survey!
Band - The Unseen
Song - Waste Of Time

Tabber - Unholy_Love
e-Mail - Synystersaint@aim.com
Tuning - Probably Drop D

Intro

e||--------------------------------||
B||--------------------------------||
G||-7-7-7-7-7----5-5-5-5-5---------||
D||-7-7-7-7-7----5-5-5-5-5---------||
A||-5-5-5-5-5----3-3-3-3-3---------||
D||--------------------------------|| That parts simple.
PM    . . . .      . . . . 

e||--------------------------------||
B||--------------------------------||
G||-7-7-7-7-7----5-5-5-5-5---------||
D||-7-7-7-7-7----5-5-5-5-5---------||
A||-5-5-5-5-5----3-3-3-3-3---------||
D||--------------------------------||
PM    . . . .      . . . . 

Verse

e||--------------------------------||
B||--------------------------------||
G||-7-7-7-7-7----5-5-5-5-5---------||
D||-7-7-7-7-7----5-5-5-5-5---------||
A||-5-5-5-5-5----3-3-3-3-3---------||
D||--------------------------------|| That parts simple.
PM    . . . .      . . . . 

e||--------------------------------||
B||--------------------------------||
G||-7-7-7-7-7----5-5-5-5-5---------||
D||-7-7-7-7-7----5-5-5-5-5---------||
A||-5-5-5-5-5----3-3-3-3-3---------||
D||--------------------------------|| That parts simple.
PM    . . . .      . . . . 

e||--------------------------------||
B||--------------------------------||
G||-7-7-7-7-7----5-5-5-5-5---------||
D||-7-7-7-7-7----5-5-5-5-5---------||
A||-5-5-5-5-5----3-3-3-3-3---------||
D||--------------------------------|| That parts simple.
PM    . . . .      . . . . 

e||--------------------------------||
B||--------------------------------||
G||-7-7-7-7-7----5-5-5-5-5---------||
D||-7-7-7-7-7----5-5-5-5-5---------||
A||-5-5-5-5-5----3-3-3-3-3---------||
D||--------------------------------|| That parts simple.
PM    . . . .      . . . . 

Pre-Chorus

e||-------------||------------------||
B||-------------||------------------||
G||-7~--5~--9~--||-7~--5~--9~-------||
D||-7~--5~--9~--||-7~--5~--9~-------||
A||-5~--3~--7~--||-5~--3~--7~-------||
D||-------------||------------------|| 
 "waste... of.. time..                 Strike the first chord at "waste" second at "Of" and third at "Time"

e||-------------||------------------||
B||-------------||------------------||
G||-7~--5~--9~--||-7~--5~--9~-------||
D||-7~--5~--9~--||-7~--5~--9~-------||
A||-5~--3~--7~--||-5~--3~--7~-------||
D||-------------||------------------|| 

Well, thats all i got. I figured it out by myself.. so it may be wrong.
But sorry. So..
Comment and Rate
Related for Waste Of Time tab