Song name
# A B C D E F G H I J K L M N O P Q R S T U V W X Y Z

Unseen - Beat It tab

Band - The Unseen
Song - Beat It (Michael Jackson Cover)
Tabbed By - SumFX (Tyler Freear)

Cool Cover, The Other Tab Had The Rhythm Dead On But
I Noticed Some People Wanted The Lead Parts!

So Here We Go!!!

--------------------------------------
             Rhythm
--------------------------------------
Intro
|----------------------------|
|----------------------------|
|--12-12--9-9----12-12---7---|
|--12-12--9-9----12-12---7---|
|--10-10--7-7----10-10---5---|
|----------------------------|

Chorus
|---------------------|
|---------------------|
|---------------------|
|-------5-2--4-2-0-0--|
|-----2---------------|
|-0-3-----------------|

Verse
|-------------------------------------------------|
|-------------------------------------------------|
|-99-9--77-7--99-9--77-7--55-5--77-7--99-9--77-7--|
|-99-9--77-7--99-9--77-7--55-5--77-7--99-9--77-7--|
|-77-7--55-5--77-7--55-5--33-3--55-5--77-7--55-5--|
|-------------------------------------------------|

-------------------------------------
              Lead
-------------------------------------
Intro
|-----------------------|
|-----------------------|
|-121212-12-9--111111-7-|
|-121212-12-9--121212-7-|
|-----------------------|
|-----------------------|

Solo/Outro
(You Can Tell This Guy Got A Lock In Trem For Christmas! lol)

Whammy Dip (WD) = Dive Bomb
2b(4)= Bend 2 To The Pitch Of 4 (Just Bend It)
p = Pull Off
NH = Natural Harmonic

Listen To The Song, It's Very Simple!!

|--Whammy-Dips-|------------------------|-Whammy-Dip-----|------|
|--------------|------------------------|----------------|------|
|-5NH----------|-2b(4)-2b(4)-2b(4)-2p0--|----------------|-12---|
|--------------|------------------------|----------------|------|
|--------------|------------------------|----------------|------|
|--------------|------------------------|-0WD------------|------|


Thats All The Guitar Parts To This Song!!!

Rate And Comment Please!!



Tap to rate this tab
# A B C D E F G H I J K L M N O P Q R S T U V W X Y Z