Song name
# A B C D E F G H I J K L M N O P Q R S T U V W X Y Z

Unseen - Social Security tab

Intro/Verse/Chorus

e---------------------------------------------------------------------------------|
b---------------------------------------------------------------------------------|
g------7--------------------------------------------------------------------------|
d------7---7----9---5-------------------------------------------------------------|
a------5---7----9---5-------------------------------------------------------------|
e----------5----7---3-------------------------------------------------------------|
                              (figure rhythm out yourself)

Solo

e------9/-1010---------------------------------------------------9/-1010----------|
b------9/-1010---x6---------------------------------------------9/-1010-x6--------|
g------------------------11-9-----------------------------9-11--------------------|
d-----------------------------11-9-------------------9-11-------------------------|
a----------------------------------11-9---------9-11------------------------------|
e----------------------------------------12--12-----------------------------------|
Tap to rate this tab
# A B C D E F G H I J K L M N O P Q R S T U V W X Y Z