Song name
# A B C D E F G H I J K L M N O P Q R S T U V W X Y Z

Unseen - Too Young To Know Too Reckless To Care tab

Artist:  The Unseen
Song:  Too Young to Know...too Reckless to Care
Album:  Lower Class Crucifixion
Track:  2
Tabbed by:  Rick (RCGoalie1@aol.com)
AIM:  unhlax23

Chords:

A5  (577xxx)
G5  (355xxx)
D5  (x577xx)
E5  (022xxx)
B5  (x244xx)
E2  (x799xx)


Intro/Chorus:

E|-------------------------------|
B|-------------------------------|
G|-----------------7-7-7-9---9-9-|
D|-7-7-5-7---7-7---7-7-7-9---9-9-|
A|-7-7-5-7---7-7---5-5-5-7---7-7-|
E|-5-5-3-5---5-5-----------------|

Verse:

E|----------------------------|
B|----------------------------|
G|--4-4-4---------------------|
D|--4-4-4-2-2-2-5-5-5-7-7-7---|
A|--2-2-2-2-2-2-5-5-5-7-7-7---|
E|--------0-0-0-3-3-3-5-5-5---|

That's it.  Those are the only two parts to the song.  Just alternate them and
you've got it.  Rate this and email me with questions.  Later.
Tap to rate this tab
# A B C D E F G H I J K L M N O P Q R S T U V W X Y Z