Song name
# A B C D E F G H I J K L M N O P Q R S T U V W X Y Z

Unseen - False Hope tab

Artist:  The Unseen
Song:  False Hope
Album:  Explode
Tabbed by:  Rick (RCGoalie1@aol.com)
AIM:  unhlax23


Chords:

E5  (022xxx)
A5  (577xxx)
G5  (355xxx)
F5  (133xxx)


This song is off of their new album that comes out this summer.  I can't wait for it.

Intro:

E|----------------------------------------------------------------------|
B|----------------------------------------------------------------------|
G|----------------------------------------------------------------------|
D|-7-7-7-7-7-7-7-7-7-7-7-7-3-3-3-3-3-3-3-3-3-3-3-3----------------------|
A|-7-7-7-7-7-7-7-7-7-7-7-7-3-3-3-3-3-3-3-3-3-3-3-3----------------------|
E|-5-5-5-5-5-5-5-5-5-5-5-5-1-1-1-1-1-1-1-1-1-1-1-1----------------------|
cont.
E|----------------------------------------------------------------------|
B|----------------------------------------------------------------------|
G|----------------------------------------------------------------------|
D|-7-7-7-7-7-7-7-7-7-7-7-7-5-5-5-5-5-5-3-3-3-3-3-3----------------------|
A|-7-7-7-7-7-7-7-7-7-7-7-7-5-5-5-5-5-5-3-3-3-3-3-3----------------------|
E|-5-5-5-5-5-5-5-5-5-5-5-5-3-3-3-3-3-3-1-1-1-1-1-1----------------------|

To play the verse just palm mute the chords in the intro

Chorus:

E|----------------------------------------------------------------------|
B|----------------------------------------------------------------------|
G|----------------------------------------------------------------------|
D|-7-7-7-7-7-7-7--2-3-3-3-3-2-2-2-2-7-7-7-7-7-7-7-7--2-3-3-3-3-2--------|
A|-7-7-7-7-7-7-7--2-3-3-3-3-2-2-2-2-7-7-7-7-7-7-7-7--2-3-3-3-3-2--------|
E|-5-5-5-5-5-5-5--0-1-1-1-1-0-0-0-0-5-5-5-5-5-5-5-5--0-1-1-1-1-0--------|

Bridge:  play the chords for the verse and let them ring and play this little riff under them

E|----------------------------------------------------------------------|
B|----------------------------------------------------------------------|
G|----------------------------------------------------------------------|
D|----------------------------------------------------------------------|
A|-7-8--10--8-7--7-8--10--8-7-------------------------------------------|
E|----------------------------------------------------------------------|


Those are all the parts to the song.  There is an mp3 of this song on their
webiste www.unseenpunks.com that you can listen to.  It sounds awsome, make
sure you get the new album when it comes out.  Rate this, thanks.  Later.
Tap to rate this tab
 
# A B C D E F G H I J K L M N O P Q R S T U V W X Y Z