Song name
# A B C D E F G H I J K L M N O P Q R S T U V W X Y Z

Unseen - Dont Be Fooled tab

DON'T BE FOOLED - The Unseen

By: Amanda Evans *** RiotChick23@aol.com ***

e|---------------------------------------------------------------------------|
B|---------------------------------------------------------------------------|
G|---------------------------------------------------------------------------|
D|--11----11---11---11-------------------------------------------------------|
A|--11----11---11---11-------------------------------------------------------|
E|--9-----9----9----9--------------------------------------------------------|

e|---------------------------------------------------------------------------|
B|---------------------------------------------------------------------------|
G|--11------9------7--9--11--------------------------------------------------|
D|--11--12--9--11--7--9--11--------------------------------------------------|
A|--9---12--7--11--5--7--9---------------------------------------------------|
E|------10-----9-------------------------------------------------------------|
Tap to rate this tab
# A B C D E F G H I J K L M N O P Q R S T U V W X Y Z