Song name
# A B C D E F G H I J K L M N O P Q R S T U V W X Y Z

Unseen - D I Y tab

-----------------------------------------------------------------
D.I.Y. OR DIE - Unseen
-----------------------------------------------------------------
Tabbed by: DumbKids
Album: Complete Singles Collection
Tuning: Standard

e|-------------------------------------------------|
B|-------------------------------------------------|
G|7-7-7------------------11----11----11------------|
D|7-7-7-(hold)--------------12----12---------------|
A|5-5-5--------------------------------------------|
E|---------------------------------------\pickslide|

e|------------------|
B|------------------|
G|7777-5555-7777-5-4|
D|7777-5555-7777-5-4|
A|5555-3333-5555-3-2|
E|------------------|

e|-------------------------------------------------|
B|-------------------------------------------------|
G|7---9---7---9---7---9---7---9--------------------|
D|7---9---7---9---7---9---7---9---(hold each chord)|
A|5---7---5---7---5---7---5---7--------------------|
E|-------------------------------------------------|

e|----------------------------------|
B|----------------------------------|
G|7-7-999--7-7-999--7-7-999--7-7-999|
D|7-7-999--7-7-999--7-7-999--7-7-999|
A|5-5-777--5-5-777--5-5-777--5-5-777|
E|----------------------------------|

Order:

Intro x1
Verse x6
Bridge x1
Chorus x1
Verse x6
Bridge x1
Chorus x1
Verse x6
Brige x1
Chorus x2
Tap to rate this tab
# A B C D E F G H I J K L M N O P Q R S T U V W X Y Z