Song name
# A B C D E F G H I J K L M N O P Q R S T U V W X Y Z

Unseen - Boston United tab

-------------------------------------------------------------------------------
			     BOSTON UNITED - Band Name
-------------------------------------------------------------------------------
Tabbed by: dancnlikeamunky
Email: edboy701@hotmail.com

Tuning: Standard

Pick Slide
Verse
e|----------------------------|
B|----------------------------|
G|-9------9--12--11-----------|
D|-9--10--9--12--11--(x2)-----|
A|-7--10--7--10--9------------|
E|-----8----------------------|  Then just bass and drums for 2 measures.

Repeat Verse

Chorus
e|---------------------------|
B|---------------------------|
G|--9--7--x-x-x-x------------|
D|--9--7--x-x-x-x---(x4)-----|
A|--7--5--x-x-x-x------------|
E|---------------------------|

Solo
e|-16--13--------------------------------------------|
B|----------16--13-----------------------------------|
G|------------------15--13--13--15b-15b-15--13-------|
D|-----------------------------------------------15--|
A|---------------------------------------------------|
E|---------------------------------------------------|
Then there's a funny little thing I couldn't figure out, sorry.
Verse

Chorus

End on
e|-----|
B|-----|
G|---7-|
D|---7-|
A|---5-|
E|-----|
Tap to rate this tab
# A B C D E F G H I J K L M N O P Q R S T U V W X Y Z