Song name
# A B C D E F G H I J K L M N O P Q R S T U V W X Y Z

Unseen - Your Can Never Go Home tab

#-----------------------------------------------------------------------------#
#-- File created with Instab - http://www.pconline.com/~smcarey/instab.html --#
#-----------------------------------------------------------------------------#

Author/Artist: the unseen
Title: you can never go home
Album: state of discontent
Transcribed by: weeman
Email: alkalinetrio6204@aol.com
r = let ring

------------------|------------------------------------------------|
----7------8---7--|------------------------------------------------|
-7r---7-7r---7---7|777777--------999999-121212121212---------------|
-7r-----7r--------|777777-777777-999999-121212121212---------------|
-5r-----5r--------|555555-777777-777777-101010101010---------------|
------------------|-------555555-----------------------------------|
   intro x1         intro part 2. x2

-------------------------------------------------------------------|
-------------------------------------------------------------------|
-777777--------999999-121212121212---------------------------------|
-777777-777777-999999-121212121212---------------------------------|
-555555-777777-777777-101010101010---------------------------------|
--------555555-----------------------------------------------------|
  .....  .....  .....   ..........
verse

-------------------------------|-------------------|---------------|
-------------------------------|-------------------|---------------|
---------------7777------------|---------------7---|---------------|
-999/10\999/10-7777-77777------|-999/10\999/10-7-7-|---------------|
-999/10\999/10-5555-77777------|-999/10\999/10-5-7-|---------------|
-777/-8\777/-8------55555------|-777/-8\777/-8---5-|---------------|
 chorus  x4. on 3rd time play>

------------|------------------------------------------------------|
----7-------|------------------------------------------------------|
-7r--7-9-12-|------------------------------------------------------|
-7r----9-12-|------------------------------------------------------|
-5r----7-10-|------------------------------------------------------|
------------|------------------------------------------------------|
 bridge/interlude, whatever floats yar boat whatever its is play it twice

-------------------------------------------------------------------|
-------------------------------------------------------------------|
-7r----------------------------------------------------------------|
-7r----------------------------------------------------------------|
-5r----------------------------------------------------------------|
-------------------------------------------------------------------|
 end on
Tap to rate this tab
# A B C D E F G H I J K L M N O P Q R S T U V W X Y Z