Song name
# A B C D E F G H I J K L M N O P Q R S T U V W X Y Z

Unseen - New World Disorder tab

The Unseen
New World Disorder
Tabbed By: Aaron Kunde

Intro
|-------------------------------|
|-------------------------------|
|-------------------------------|
|-------------------------------|
|-12-11-9999999999999999999999--|
|-10-9--7777777777777777777777--|
         xxxxxxxxxxxxxxxxxxxxx      

Verse
|-------------------------------------------------------------------------------------------|
|-------------------------------------------------------------------------------------------|
|-------------------------------------------------------------------------------------------|
|-------------------------------------------------------------------------------------------|
|-12-11-9999999999999999999999--5-7-9999999999999999999999-12-11-9999999999999999999999-5-7-|
|-10-9--7777777777777777777777--3-5-7777777777777777777777-10-9--7777777777777777777777-3-5-|
         xxxxxxxxxxxxxxxxxxxxx       xxxxxxxxxxxxxxxxxxxxx        xxxxxxxxxxxxxxxxxxxxx

Chorus
|-------------------------------|
|-------------------------------|  x4
|-------------------------------|
|---------9-9-999---------------|
|-9-9-999-7-7-777-5-5-555-7-5-7-|
|-7-7-777---------3-3-333-5-3-5-|

Verse 2
|------------------------------------------------------------------------------------------------------------------|
|------------------------------------------------------------------------------------------------------------------|
|------------------------------------------------------------------------------------------------------------------|
|------------------------------------------------------------------------------------------------------------------|
|-9999999999999999999999-12-11-9999999999999999999999--5-7-9999999999999999999999-12-11-9999999999999999999999-5-7-|
|-7777777777777777777777-10-9--7777777777777777777777--3-5-7777777777777777777777-10-9--7777777777777777777777-3-5-|
   xxxxxxxxxxxxxxxxxxxxx        xxxxxxxxxxxxxxxxxxxxx       xxxxxxxxxxxxxxxxxxxxx        xxxxxxxxxxxxxxxxxxxxx

Chorus 2
|-------------------------------|
|-------------------------------|  x4
|-------------------------------|
|---------9-9-999---------------|
|-9-9-999-7-7-777-5-5-555-7-5-7-|
|-7-7-777---------3-3-333-5-3-5-|


Interlude  ...I belive It's with a Phase Shifter Pedal ( guitar 1 )
Guitar 1    
|-----------------------|
|-----------------------|  x16
|-----------------------|
|-----11-11-12-12-11-11-|
|-9-9-------------------|
|-----------------------|

Guitar 2
|---------------------------------------------------------------------------------------------|
|---------------------------------------------------------------------------------------------|
|---------------------------------------------------------------------------------------------|
|---------------------------------------------------------------------------------------------|
|-9//////////-------12-11-9-------5-7-9999999999999999999999-12-11-9999999999999999999999-5-7-|
|-7//////////-------10-9--7-------3-5-7777777777777777777777-10-9--7777777777777777777777-3-5-|
                                       xxxxxxxxxxxxxxxxxxxxx        xxxxxxxxxxxxxxxxxxxxx

Chorus 3                                
|-------------------------------|      
|-------------------------------|  x4 
|-------------------------------|      
|---------9-9-999---------------|      
|-9-9-999-7-7-777-5-5-555-7-5-7-|      
|-7-7-777---------3-3-333-5-3-5-|      

End
Guitar 2
|---------------------|
|---------------------|
|---------------------|
|---------------------|
|-9-------12-11-9////-|
|-7-------10-9--7////-|

Guitar 1
|-----------------------|    |-------------|
|-----------------------| x3 |-------------|
|-----------------------|    |-------------|
|-----11-11-12-12-11-11-|    |-------------|
|-9-9-------------------|    |-12-11-9////-|
|-----------------------|    |-10-9--7////-|


It's a short song but it's reeally great.
Peace.
Tap to rate this tab
# A B C D E F G H I J K L M N O P Q R S T U V W X Y Z