Song name
# A B C D E F G H I J K L M N O P Q R S T U V W X Y Z

Unseen - Anger And The Truth tab

#-----------------------------------------------------------------------------#
#-- File created with Instab - http://www.pconline.com/~smcarey/instab.html --#
#-----------------------------------------------------------------------------#

Author/Artist: The Unseen
Title: Anger and the truth
Album: The anger and the truth
Transcribed by: Weeman
Email: alkalinetrio6204@aol.com

surprised this is teh 1st time this has been tabbed, cool song.
well here it is, pretty sure its atleast 95% correct

--------------------------|
--------------------------|
-------------777777777777-|
-44444444444-777777777777-|
-44444444444-555555555555-|
-22222222222--------------|
 intro X2  (breaking pm)

------------------------------|
------------------------------|
-----444-666-222-999999999999-|
-222-444-666-222-999999999999-|
-222-222-444-000-777777777777-|
-000--------------------------|
 verse

---------------------------------------|---------------------|
-/12-12-12-12-12-12-/12-12-12-12-12-12-|---------------------|
---------------------------------------|---------------------|
---------------------------------------|-7b-7-5-----7b-7-5---|
---------------------------------------|--------7-7--------7-|
---------------------------------------|---------------------|
 lead for verse (2nd verse only)         2nd part

-----------------------------------|-------------------------------------|
-----------------------------------|-------------------------------------|
-6666666666666666-9999999999999999-|-6666666666666666--------------------|
-6666666666666666-9999999999999999-|-6666666666666666-77777777-99999999--|
-4444444444444444-7777777777777777-|-4444444444444444-77777777-99999999--|
-----------------------------------|------------------55555555-77777777--|
 chorus X3 then ------------------> x1-----------------------------------|
                ........ ........

---------------------------|-----------------------------|
---------------------------|-----------------------------|
--------------777777777777-|-------------------------7---|
-444444444444-777777777777-|-444444444444-5555-77777-7---|
-444444444444-555555555555-|-444444444444-5555-77777-5---|
-222222222222--------------|-222222222222-3333-55555-----|
 outro X3 then ------------------------------------------|    X1 then end
Tap to rate this tab
 
# A B C D E F G H I J K L M N O P Q R S T U V W X Y Z