Song name
# A B C D E F G H I J K L M N O P Q R S T U V W X Y Z

Unseen - Right Before Your Eyees tab

NOTE:
I didn't put how many times to play the chords, just the chords themselves. Just listen 
the song, not that hard. On the last two plays of the intro they mute the Open D.


INTRO)

e|----------------------------------------------|
B|----------------------------------------------|
G|----------------10----------------------------|
D|---0---3/---8---10----------------------------|
A|---0---3/---8---8-----------------------------|
D|---0---3/---8---------------------------------|
                                                (X4)
(VERSE)

e|---------------------------------------------|
B|---------------------------------------------|
G|------10/--5-------10/--5-----10/--5---------|
D|--0---10/--5---0---10/--5--0--10/--5---------|
A|--0---8-/--3---0---8-/--3--0--8-/--3---------|
D|--0------------0-----------0-----------------|

e|---------------------------------------------|
B|---------------------------------------------|
G|-3--5--10/-9---(2nd Time)-3--10--5-----------|
D|-3--5--x-/-x--------------3--10--5-----------|
A|-1--3--8-/-7--------------1--8---3-----------|
D|---------------------------------------------|
                                                (X2)

(CHROUS)

e|---------------------------------------------|
B|---------------------------------------------|
G|---------------------------------------------|
D|--0--2-3---8--7--8--10-----------------------|
A|--0--2-3---8--7--8--10-----------------------|
D|--0--2-3---8--7--8--10-----------------------|
                                                (X2)

Song Order:
Intro
Verse
Chorus
Verse
Chorus
Verse(Slightly changed rythem listen to song)
Chorus X2

Ending is just Open D
Tap to rate this tab
 
# A B C D E F G H I J K L M N O P Q R S T U V W X Y Z