Song name
# A B C D E F G H I J K L M N O P Q R S T U V W X Y Z

Unspoken - Snake tab

artist-unspoken
song title - snake
standard tuning

I'm the guitarist in this band this is our own work. 
watch out for us were coming fast

intro play 2x its real fast
e-----------------------------------------------------------------------
b-----------------------------------------------------------------------
g-----------------------------------------------------------------------
d----------9-------------------------------------------------------------
a---7---7---------9------9--------------------------------------------------
e-5-----------7------6-----------------------------------------------------

then like this figure out the strumming
e
b
g
d----9------------------------------------------------------------------
a-7--7--9---9--------------------------------------------------------------
e-5-----7--6--------------------------------------------------------------\

interlude 1 down strum on each chord if any questions e mail me mgalyean@msn.com
e
b
g
d----9-------------------------------
a-7--7-7--9------------------------------
e-5----9--6----------------------------
Tap to rate this tab
# A B C D E F G H I J K L M N O P Q R S T U V W X Y Z