Song name
# A B C D E F G H I J K L M N O P Q R S T U V W X Y Z

Unsung Zeros - Postcards Home tab

Song: Postcards Home
Album: Fading Out [EP]
Band: Unsung Zeros


Standard tuning (EADGBe)
   x   =  palm mute
   ~   =  let ring
/ or \ =  slide up/down


Intro Guitar 1
e ----------------------------------------------------------         -------|
B ---------------------------------------------------------- 2x then -------|
G ----------------------------------6666--4--2222--4--------         -------|
D -2222---------------2222----------6666--4--2222--4--2222--         -2222--|
A -2222---------------2222----------4444--2--0000--2--2222--         -2222--|
E -0000---------------0000----------------------------0000--         -0000--|

Intro Guitar 2 (palm muted)
e --------------------------------------------------|
B -------9-----------9-----------9-----------9------| 8x
G -9-9-9---999-7-7-7---777-5-5-5---555-7-7-7---777--|
D --------------------------------------------------|
A --------------------------------------------------|
E --------------------------------------------------|

Pre-verse
e ---------------------------------|
B ---------------------------------|
G --9-----6---------99-----6-------|
D --9--7--6--7\9----99--7--6--7\9--|
A --7--7-x4--7\9----77--7-x4--7\9--|
E ----x5----x5\7-------x5----x5\7--|

Verse
   Eyes open...
e --------------------------------|
B --------------------------------| 2x
G --9-----6---------9-----6-------|
D --9--7--6--7\9----9--7--6--7\9--|
A --7--7-x4--7\9----7--7-x4--7\9--|
E ----x5----x5\7------x5----x5\7--|

Pre-Chorus
   Gotta go...
e --------------------|
B --------------------|
G ------2~---6~---2~--|
D -4~---2~---6~---2~--|
A -4~---0~---4~---0~--|
E -2~-----------------|

Chorus
   Do you...
e ------------------------------------------|
B ------------------------------------------| 2x
G ------22---44---66---22---44---66---------|
D -22---22---44---66---22---44---66---6677--|
A -22---00---22---44---00---22---44---6677--|
E -00---------------------------------4455--|

Intro Guitar 1
e -------|
B -------| 1x
G -------|
D -2222--|
A -2222--|
E -0000--|

Intro Guitar 2
e --------------------------------------------------|
B -------9-----------9-----------9-----------9------| 1x
G -9-9-9---999-7-7-7---777-5-5-5---555-7-7-7---777--|
D --------------------------------------------------|
A --------------------------------------------------|
E --------------------------------------------------|

Verse
   It's 3 am...
e --------------------------------|
B --------------------------------| 2x
G --9-----6---------9-----6-------|
D --9--7--6--7\9----9--7--6--7\9--|
A --7--7-x4--7\9----7--7-x4--7\9--|
E ----x5----x5\7------x5----x5\7--|

Pre-Chorus
   But I gotta...
e --------------------|
B --------------------|
G ------2~---6~---2~--|
D -4~---2~---6~---2~--|
A -4~---0~---4~---0~--|
E -2~-----------------|

Chorus
   Do you...
e ------------------------------------------|
B ------------------------------------------| 2x
G ------22---44---66---22---44---66---------|
D -22---22---44---66---22---44---66---6677--|
A -22---00---22---44---00---22---44---6677--|
E -00---------------------------------4455--|

Bridge
   so long...
e ----------------------------|
B ----------------------8--6--|
G ---------------2-4-6--------|
D -4~---6~---7~--2-4-6--------|
A -4~---6~---7~--0-2-4--------|
E -2~---4~---5~---------------|

I don't know the solo. during the solo the second guitar
plays the verse riff twice

Pre-Chorus
   Gotta go...
e --------------------|
B --------------------|
G ------2~---6~---2~--|
D -4~---2~---6~---2~--|
A -4~---0~---4~---0~--|
E -2~-----------------|

Chorus
To end the song you are going to play the chorus twice. The first half of the first
time you play the chorus is only bass. the second half is played palm muting the first
chord of each set. Then the chorus is repeated normally. so it will look something like
this.

Do you...
  (Bass only)

  the things...
e ------------------------------------|
B ------------------------------------|
G ------x2---x4---x6---x2---x4---6~~--|
D -x2---x2---x4---x6---x2---x4---6~~--|
A -x2---x0---x2---x4---x0---x2---4~~--|
E -x0---------------------------------|

then slide to the the first chord of the chorus
Chorus
   Do you...
e ------------------------------------------|
B ------------------------------------------| 2x
G ------22---44---66---22---44---66---------|
D -22---22---44---66---22---44---66---6677--|
A -22---00---22---44---00---22---44---6677--|
E -00---------------------------------4455--|

End with

e -----
B -----
G -----
D -22--
A -22--
E -00--
Tap to rate this tab
# A B C D E F G H I J K L M N O P Q R S T U V W X Y Z