Song name
# A B C D E F G H I J K L M N O P Q R S T U V W X Y Z

Unsung Zeros - Smile tab

Help us improve GuitareTab! Take a short survey!
                       Unsung Zeros - Smile
       ----------------------------------------------
Tabbed by: romeoiswhorish

Tuning: standard

intro/main riff x4

e|--------------------------------------------------------------------------|
B|--------------------------------------------------------------------------|
G|-------6------------------------------------------------------------------|
D|7------6--x16-4------2----------------------------------------------------|
A|7-x16- 4------4--x16-2--x16-----------------------------------------------|
E|5-------------2------0----------------------------------------------------|

chorus x2
e|--------------------------------------------------------------------------|
B|--------------------------------------------------------------------------|
G|---------------------7777--7777-------------------------------------------|
D|77-66-44---22222222--7777--7777--9999----7777-----------------------------|
A|55-66-44---22222222--5555--4444--9999----7777-----------------------------|
E|55-44-22---00000000--------------7777----5555-----------------------------|

-solo
the rhtym guitar just plays the main riff over it

-verse x2

-chorus x2

-solo again/main riff over it

-chorus x2

outro x2
e|---------------------------------------------------------------------------|
B|---------------------------------------------------------------------------|
G|--------------------------7777---7777--------------------------------------|
D|7777--7777---4444--2222---7777---7777--9999----7777------------------------|
A 7777--7777---4444--2222---5555---4444--9999----7777------------------------|
E|5555- 4444---2222--0000----------------7777----5555------------------------|

the lead guitarist plays another solo in the background of the outro, but as stated, i 
figure out any of the solo's. good luck!
Related for Smile tab