Song name
# A B C D E F G H I J K L M N O P Q R S T U V W X Y Z

Untitled - Money tab

Untitled - Money
Caleb Sullivan (none)

Money
By Caleb Sullivan from untitled 
Chorus 
--------------------------------------
--------------------------------------
--------------------------------------
0--0-0-3-3-3-5--5--5-3-3--------------  Riff one
0--0-0-3-3-3-5--5--5-3-3--------------
0--0-0-3-3-3-5--5--5-3-3--------------


--------------------------------------
--------------------------------------
--------------------------------------
0--0-0-3-3-3-5--5--5-0-0-------------- Riff two
0--0-0-3-3-3-5--5--5-0-0--------------
0--0-0-3-3-3-5--5--5-0-0--------------


Verse
---------------------------------------
---------------------------------------
---------------------------------------Riff three
---------------------------------------
0-0-0-0-3-3-3-3-0-0-0-0-3--------------
0-0-0-0-3-3-3-3-0-0-0-0-3--------------

---------------------------------------
---------------------------------------
---------------------------------------Riff four
---------------------------------------
0-0-0-0-3-3-3-3-0-0-0-0-5--------------
0-0-0-0-3-3-3-3-0-0-0-0-5--------------
Tap to rate this tab
# A B C D E F G H I J K L M N O P Q R S T U V W X Y Z