Guitaretab - guitar tabs
Song name
# A B C D E F G H I J K L M N O P Q R S T U V W X Y Z

Unwed Sailor - Last Goodbyes tab

------------------------------------------------------------------------|
---------------5-------3-----5--------------------5-----3---------------|
--------3-/-5----6--4---4--6---6-/-2--------3-/-5--6--4--4--4-6-2-4-6-2-|
---0-2--4-/-6-------2------4------------0-2-4-/-6-----2-----5-4-0-5-4-0-|
--0------------------------------------0--------------------------------|
------------------------------------------------------------------------|

------------------------------------------------------------------------|
---------------5-------3-----5--------------------5-----3---------------|
--------3-/-5----6--4---4--6---6-/-2--------3-/-5--6--4--4--4-6-2-4-6-2-|
---0-2--4-/-6-------2------4------------0-2-4-/-6-----2-----5-4-0-5-4-0-|
--0------------------------------------0--------------------------------|
------------------------------------------------------------------------|

-----------------------------------------------------------------------|
-----------------------------------------------------------------------|
-0-0-7-9-11-11-11-9-7-9-7--0-0-7-9-11-11-11-9-7-14-12------------------|
-0-0-7-0-0--0--0--0-0-0-0--0-0-7-0-0--0--0--0-0-0--0-------------------|
-----------------------------------------------------------------------|
-----------------------------------------------------------------------|
[ Tab from: http://www.guitaretab.com/u/unwed-sailor/75355.html ]
-----------------------------------------------------------------------|
-----------------------------------------------------------------------|
-0-0-7-9-11-11-11-9-7-9-7-----000000000000000000000000-----------------|
-0-0-7-0-0--0--0--0-0-0-0-----555555554444444400000000-----------------|
-----------------------------------------------------------------------|
-----------------------------------------------------------------------|

-----------------------------------------------------------------------|
-----------------------------------------------------------------------|
-----------------------------------------------------------------------|
-----------------------------------------------------------------------|
-0-0-5-7-9-9-9-7-5-7-5---0-0-5-7-9-9-9-7-5-12-10-----------------------|
-0-0-0-0-0-0-0-0-0-0-0---0-0-0-0-0-0-0-0-0-0--0------------------------|

------------------------------------------------------------------------|
------------------------------------------------------------------------|
--------------------------000000000000000000000000-00000000000000000000-|
--------------------------555555554444444400000000-55555555444444440000-|
-0-0-5-7-9-9-9-7-5-7-5--------------------------------------------------|
-0-0-0-0-0-0-0-0-0-0-0--------------------------------------------------|

-----------------------------------------------------------------------|
-----------------------------------------------------------------------|
-----------------------------------------------------------------------|
-----------------------------------------------------------------------|
-----------------------------------------------------------------------|
-----------------------------------------------------------------------|
Related for Last Goodbyes tab