Song name
# A B C D E F G H I J K L M N O P Q R S T U V W X Y Z

Unwound - Dragnalus tab

Dragnalus

standard tuning

Intro
Guitar
|--------(0)-------------(0)-------------(0)-------------(0)------|
|--------------------------------------------------------(0)------|
|---------2---------------2------(0)------2------(0)------2-------|
|--------(0)-------------(0)-----(0)-----(0)-----(0)-----(0)------|
|--------------------------------------------------------(0)------|
|-3---------------3---------------3---------------3---------------|

Bass
|-----------------------------------------------------------------|
|-----------------------------------------------------------------|
|-----------------------------------------------------------------|
|-3---3-3-3h5-0---3---3-3-3h5-0---3---3-3-3h5-0---3---3-3-3h5-0---|

h = hammer on

Verse
Guitar
|-----------------------------------------------------------------|
|-----------------------------------------------------------------|
|---------6---------------6---------------6---------------6-------|
|--------(7)-------------(7)-------------(7)-------------(7)------|
|-----------------------------------------------------------------|
|-5---------------5---------------5---------------5---------------|
lyric:   "This song      that song       love song       hate song..."

|---------------------------------|
|---------------------------------|
|---------2---------------2-------|
|----------------(0)-----(2)------|
|---------------------------------|
|-1---------------3---------------|
 "you're  so      bored   with..."

Bass
|-----------------------------------------------------------------|
|-----------------------------------------------------------------|
|-0---0-0-0---0---0---0-0-0---0---0---0-0-0---0---0---0-0-0---0---|
|-----------------------------------------------------------------|

|---------------------------------|
|---------------------------------|
|-5---5---5---5---3---3---3---3---|
|---------------------------------|

Chorus
Guitar
|-----------------------------------------------------------------|
|--------(5)-------------(5)-------------(5)-------------(5)------|
|---------5b--------------5b--------------5b--------------5b------|
|---------7b--------------7b--------------7b--------------7b------|
|--------(0)-------------(0)-------------(0)-------------(0)------|
|-----------------------------------------------------------------|
lyric:   "I               don't           feel            strange..."
b = slight bend

|---------------------------------|
|---------------------------------|
|------------(0)*----(0)-(0)-(5)--|
|------------(0)*--------(0)--5---|
|-0*------3b--0---5---3---0---3---|
|---------------------------------|

Bass
|-----------------------------------------------------------------|
|-----------------------------------------------------------------|
|-0---0-0-0---0---0---0-0-0---0---0---0-0-0---0---0---0-0-0---0---|
|-----------------------------------------------------------------|

|---------------------------------|
|---------------------------------|
|-5---5-5-5---5-5s/7--7-7-7---7---|
|---------------------------------|


Second (noisy) Chorus, before outro
Guitar
|-----------------------------------------------------------------|
|---------6b---(x)--(x)---6b-----(x)--(x)-6b----x-x--x-x--6b------|
|------x-x------x-x--x-x--------x-x--x-x--------x-x--x-x----------|
|-(^)--x-x------x-x--x-x--------x-x--x-x--------x-x--x-x----------|
|-----0x-x------0-0--x-x--------x-x--x-x--------x-x--x-x----------|
|-----------------------------------------------------------------|
lyric:                   "Don't           know            you..."
(^) = feedback rest
x = muted strings with intermittent harmonics

|-----------------------------------------------------------------|
|-----0~----------------------------------------------------------|
|-----0~------------(noise)---------------------------------------|
|-----0~----------------------------------------------------------|
|-----------------------------------------------------------------|
|-----------------------------------------------------------------|
random slides up the neck w/ improv picking and bending on high frets
There's lots of improvised noise, so just make up your own skronk.
Incorporate feedback and try rapidly shaking and bending the body 
and neck of the guitar for subtle effects.

Bass
|-----------------------------------------------------------------|
|-----------------------------------------------------------------|
|-----------------------------------------------------------------|
|-x-x-x-x-5---x-x-x-x-x-x-5---x-x-x-x-x-x-5---x-x-x-x-x-x-5---x-x-|


|-----------------------------------------------------------------|
|-----------------------------------------------------------------|
|-----------------------------------------------------------------|
|-3---3-3-3h5-0---3---3-3-3h5-0---3---3-3-3h5-0---3---3-3-3h5-0---|

Outro (same as intro, overlaps with noise chorus)
Guitar
|--------(0)-------------(0)-------------(0)-------------(0)------|
|--------------------------------------------------------(0)------|
|---------2------(0)------2------(0)------2------(0)------2-------|
|--------(0)-----(0)-----(0)-----(0)-----(0)-----(0)-----(0)------|
|-----------------x---------------x---------------x------(0)------|
|-3---------------3---------------3---------------3---------------|

Bass
|-----------------------------------------------------------------|
|-----------------------------------------------------------------|
|-----------------------------------------------------------------|
|-3---3-3-3h5-0---3---3-3-3h5-0---3---3-3-3h5-0---3---3-3-3h5-0---|

Tap to rate this tab
# A B C D E F G H I J K L M N O P Q R S T U V W X Y Z