Song name
# A B C D E F G H I J K L M N O P Q R S T U V W X Y Z

Unwound - Fingernails On Chalkboard tab

Fingernails On A Chalkboard
Part A
Guitar
|-3-3-3-3-3-3-3-3-3-3-3-3-3-3-3-3-0-0-0-0-0-0-0-0-0-0-0-0-0-0-0-0-|
|-1-1-1-1-1-1-1-1-1-1-1-1-1-1-1-1-3-3-3-3-3-3-3-3-3-3-3-3-3-3-3-3-|
|-0-0-0-0-0-0-0-0-0-0-0-0-0-0-0-0-1-1-1-1-1-1-1-1-1-1-1-1-1-1-1-1-|
|-----------------------------------------------------------------|
|-----------------------------------------------------------------|
|-----------------------------------------------------------------|

bass
|-----------------------------------------------------------------|
|-----------------------------------------------------------------|
|-----------------------------------------------------------------|
|-4-4-4-3-4-3-3-3-3-4-4-3-4-3-3-3-4-4-4-3-4-3-3-3-3-4-4-3-4-3-3-3-|

Part B
bass
|-----------------------------------------------------------------|
|---------6---7---------6---7-6-7---------6---7---------6---7-6-7-|
|-----------------------------------------------------------------|
|-4---5-----------4---5-----------4---5-----------4---5-----------|

guitar - I can barely hear these chords under the noise. Listen for them, and tell me if
I'm wrong about them.
|---------5-------------5-----------------5-------------5---------|
|---------4-------------4-----------------4-------------4---------|
|-----------------------------------------------------------------|
|-----------------------------------------------------------------|
|-----------------------------------------------------------------|
|-----------------------------------------------------------------|

|---------2-------------2-----------------1-------------1---------|
|---------1-------------1-----------------0-------------0---------|
|-----------------------------------------------------------------|
|-----------------------------------------------------------------|
|-----------------------------------------------------------------|
|-----------------------------------------------------------------|
Tap to rate this tab
 
# A B C D E F G H I J K L M N O P Q R S T U V W X Y Z