Song name
# A B C D E F G H I J K L M N O P Q R S T U V W X Y Z

Unwound - Entirely Different Matters tab

Song: Entirely Different Matters
Artist: Unwound
Album: New Plastic Ideas
Tab author: budameat
Tuning: STANDARD
Notes:Play loosly, lots of muted notes in between.

Intro/Chorus:
 e-----------------------------------------|
 B-----------------------------0-----------|
 G-------2-----2--------------0-0----------|
 D---4-4-2-4-4-2-4-----------4--(4)--------|
 A---4-4---4-4---4-2-----2-0---------------|
 E-------------------3-3-------------------|
Verse:
 e-------------------------------------------------|
 B--------0----------------------------------------|
 G--------0----------------7-7-7-7-7--9-9-9-9-7-7--|
 D------2----------!4x!----7-7-7-7-7--9-9-9-9-7-7--|
 A----4--------------------5-5-5-5-5--7-7-7-7-5-5--|
 E-----------3-------------------------------------|

Outro:
 e-------------------------------------------------------------------|
 B--------------------------------------------------------0----(0)---|
 G------------------------------------------------------0-(0)---x----|
 D------5-----5-----5-----5-----5-------5-----5-----------------3----|
 A------5-----5-----5-----5-----5-------4-----4-------6---------x----|
 E--6-6---6-6---6-6---6-6---6-6---6-5-5---5-5---5-5-4-----------3----|

SONG structure:

Intro:8x
Verse:2x
Chorus:4x
Verse:2x
Chorus:8x
Outro:1x

LYRICS

Entirely Different Matters

yes i'm certain that a curtain needs some pulling cause it's hurting, it makes me think:
i'm uncertain that you're her friends and don't even try to pretend that you're all alone.
doesn't really matter
so you're hating and conspiring and i'm trying to defend her, you never said
why you hate her and you make her have intentions to make life worse, it never works.
what's the matter, it doesn't matter, nothing really matter, several different matters, 
entirely different matters,
entirely different.

Tablature explanation:
######################
B       Full Bend
b       1/2  Bend
bb      1/4  Bend
~~~~~   Tremolo
^(#)    Bend to (#)
/       Slide up
\       Slide down
h       Hammer-on
p       Pull-off
(#)     Ghost note
%       Rest
######################
Tap to rate this tab
 
# A B C D E F G H I J K L M N O P Q R S T U V W X Y Z