Song name
# A B C D E F G H I J K L M N O P Q R S T U V W X Y Z

Unwound - Petals Like Bricks tab

Artist: Unwound
Song: Petals Like Bricks
Album : The future of what?
Tuning: STANDARD
Transcribed by budameat

Intro: 8x

e |--------------------------------|
B |--------------------------------|
G |------4-------4-------4-------4-|
D |--------------------------------|
A |-4-4-----4-4-----4-4-----4-4----|
E |--------------------------------|

Verse: 4x

e |-------------------------------------------------------|
B |-------------------------------------------------------|
G |--11-11-11-11-12-12-12-12-12-12-14141414141414-16161616|
D |-------------------------------------------------------|
A |--9--9--9--9--10-10-10-10-10-10-12121212121212-14141414|
E |-------------------------------------------------------|


Chorus: 4x

e |---------------------------------|
B |---------------------------------|
G |-------8-------8-------8-------8-|
D |---------------------------------|
A |-8-8------8-8-----8-8-----8-8----|
E |---------------------------------|

Bridge: 4x

e |------------------------------------|
B |---8--------10------12------12------|
G |---0--------0-------x-------x-------|
D |---9-------(9)------9-------9-------|
A |---10-------10------9-------10------|
E |------------------------------------|

SONG structure

Intro 8x
Verse 4x
Chorus 4x
Bridge 4x
Intro 4x
Verse 4x
Chorus 4x

END
Tap to rate this tab
# A B C D E F G H I J K L M N O P Q R S T U V W X Y Z