Song name
# A B C D E F G H I J K L M N O P Q R S T U V W X Y Z

Unwound - No Tech tab

Artist: Unwound
Song: "NO TECH!"
Album: Challenge for a Civilized Society (1998)

standard tuning

Guitar
Intro at 0:02
e|--------------------------------|
B|--------------------------------|
G|--------------------------------|
D|-0h2-------------0h2------------|
A|--------------------------------|
E|--------------------------------|

Riff I
e|--------------------------------|
B|--------------------------------|
G|--------------------------------|
D|-2p0---5---------2p0-2/5--------|
A|---------6\3p0-----------6\3p0--|
E|--------------------------------|

Riff II
e|--------------------------------|
B|-----3-------3-------3-------3--|
G|--------------------------------|
D|--------------------------------|
A|-3p0-----3p0-----3p0-----3p0----|
E|--------------------------------|

Riff III
e|------------------------------------------------|
B|------------------------------------------------|
G|-4-----2~----4----/7~----4-----2-3~--4----/7~---|
D|---5-----------5-----------5-----------5--------|
A|------------------------------------------------|
E|------------------------------------------------|

Riff IV
e|--------------------------------|
B|-------3---------------3--------|
G|-------0---------------0--------|
D|-2p0---0---------2p0---0--------|
A|-----3---------------3----------|
E|--------------------------------|


Song structure:
Intro x1
Riff I x4
Riff II x4
Riff III x2
Riff I x4
Riff II x2
Riff III x2
Riff I x4
Riff IV x4

* When playing the pull-offs, add a little bend with it to make it sound better.

That's it.  This is a really fun one to play and surprisingly very simple.
Please leave any comments, questions, requests.  Cheers!
-Bennyshambles78-


Tap to rate this tab
# A B C D E F G H I J K L M N O P Q R S T U V W X Y Z