Song name
# A B C D E F G H I J K L M N O P Q R S T U V W X Y Z

Unwound - Look A Ghost tab

Artist: Unwound
Song: "October All Over"
Album: Leaves Turn Inside You (2001)

Tuning: F# A E G A E


Main Riff I
e |------------------------------------------------|
A |------------------------------------------------|
G |----2-----------4-----------2-----------4-------|
E |-2-----2--2-/4-----------2-----2--2-/4----------|
A |------------------------------------------------|
F#|------------------------------------------------|
+
e |------------------------------------------------|
A |------------------------------------------------|
G |----2-----------4-----------4--------------4-\2-|
E |-2-----2--2-/4----------------------------------|
A |-------------------------3-----3--3--2--0-------|
F#|------------------------------------------------|
+
Last measure/lead into Riff II
e |------------------------------------------------|
A |------------------------------------------------|
G |----2-----------4-----------4--------------4-/7-|
E |-2-----2--2-/4----------------------------------|
A |-------------------------3-----3--3--2--0-------|
F#|------------------------------------------------|

Riff I fill
e |------------------------------------------------|
A |-7-----------0--0--------7-----------0--0-------|
G |----5-\4--4--------0--------5-\4--4--------0----|
E |------------------------------------------------|
A |------------------------------------------------|
F#|------------------------------------------------|
+
e |------------------------------------------------|
A |-7-----------0--0--------0-----0--0-----0-------|
G |----5-\4--4--------0--------0--------0-----0----|
E |------------------------------------------------|
A |------------------------------------------------|
F#|------------------------------------------------|

Riff II
e |------------------------------------------------|
A |-------------0-----------------------0----------|
G |-------7--------7--------------7--------7-------|
E |-7-/8-----8--------------7-/8-----8-------------|
A |------------------------------------------------|
F#|------------------------------------------------|
+
e |------------------------------------------------|
A |-------------0-----------------0-----------0----|
G |-------7--------7-----------9-----------0-------|
E |-7-/8-----8--------8--8-/10---------------------|
A |----------------------------------10p9----------|
F#|------------------------------------------------|
+
Last measure/lead in to Riff III
e |------------------------------------------------|
A |-------------0-----------------------0-----0----|
G |-------0--------0--------------0--------0-------|
E |----10-------------10-------10------------------|
A |-9--------9--------------9--------9-------------|
F#|------------------------------------------------|


Riff III
e |------------------------------------------------|
A |------------------------------------------------|
G#|-------0-----------------------------------0----|
E |----------------------------2-/3--3--2-p0-------|
A |-2-h3-----3--2-p0-----0-------------------------|
F#|-------------------2----------------------------|


Riff IV
e |------------------------------------------------|
A |------------------------------------------------|
G#|-6--6--6--6--6--6--6--6--5--5--5--5--5--5--5--5-|
E |-x--x--x--x--x--x--x--x--x--x--x--x--x--x--x--x-|
A |-7--7--7--7--7--7--7--7--7--7--7--7--7--7--7--7-|
F#|-7--7--7--7--7--7--7--7--6--6--6--6--6--6--6--6-|
+
e |------------------------------------------------|
A |------------------------------------------------|
G#|-4--4--4--4--4--4--4--4--7--7--7--7--7--7--7--7-|
E |-x--x--x--x--x--x--x--x--x--x--x--x--x--x--x--x-|
A |-5--5--5--5--5--5--5--5--9--9--9--9--9--9--9--9-|
F#|-5--5--5--5--5--5--5--5--8--8--8--8--8--8--8--8-|
+
Only on second time through/lead into Riff V
e |------------------------|
A |------------------------|
G#|-7--7--7--7--7--7--7--7-|
E |-x--x--x--x--x--x--x--x-|
A |-9--9--9--9--9--9--9--9-|
F#|-8--8--8--8--8--8--8--8-|


Riff V
e |------------------------------------------------|
A |----------------0-----------------------0-------|
G |----7--0--4--------0--------7--0--4--------0----| 1st x4 / 2nd x2
E |-8-----------0-----------8-----------0----------|
A |------------------------------------------------|
F#|------------------------------------------------|
+
e |------------------------------------------------|
A |------------------------------------------------|
G |-2--2--2--2--2--2--0-----4--4--4--4--4--4--5----|
E |-x--x--x--x--x--x--x-----x--x--x--x--x--x--x----|
A |-3--3--3--3--3--3--3-----5--5--5--5--5--5--5----|
F#|------------------------------------------------|


Riff II Fill / Outro Lead
e |------------------------------------------------|
A |15----15----15----15----15----15----15----15----|
G |14----14----14----14----14----14----14----14----|
E |------------------------------------------------|
A |------------------------------------------------|
F#|------------------------------------------------|
+
e |------------------------------------------------|
A |14----14----14----14----12----12----12----12----|
G |12----12----12----12----12----12----12----12----|
E |------------------------------------------------|
A |------------------------------------------------|
F#|------------------------------------------------|
+
Last measure only
e |------------------------------------------------|
A |12----12----12----12----12----12----12----12----|
G |12----12----12----12----12----12----12----12----|
E |------------------------------------------------|
A |------------------------------------------------|
F#|------------------------------------------------|



Song structure:
Riff I x4
Riff II x2
Riff I x2
Riff II x2 + lead in
Riff III x4
Riff IV x1
Riff III x4
Riff IV x1 + lead in
Riff V
Riff II x4 + lead in (out)


That's it.  Please feel free to leave any comments, questions, or requests.
Cheers!
-Bennyshambles78-

Tap to rate this tab
# A B C D E F G H I J K L M N O P Q R S T U V W X Y Z