Song name
# A B C D E F G H I J K L M N O P Q R S T U V W X Y Z

Unwound - Hexenzsene tab

Artist: Unwound
Song: "Hexenzsene"
Album: New Plastic Ideas (1994)

Tuning: Standard


Intro/Riff I:
e|-------------0----------------------0-----------|
B|-------------5----------------------5---------0-|
G|-7-----7--7--7--7----7-----7--7--7--7--7--7---0-|
D|-0-----0--0-----0----0-----0--0--0-----0--0-----|
A|-0----------------------------------------------|
E|------------------------------------------------|
 |------------------------------------------------|
+
e|--------------------------(0)-------------------|
B|-------0-------------------10--------10---------|
G|-8-----8-----0------/11-------11----(11)---11---|
D|/9------------------/12--------------------12---|
A|------------------------------------------------|
E|------------------------------------------------|

CHORD SHAPES for Riff I:
e|-0-----0-----0-----|
B|-5-----0-----10----|
G|-7-----8-----11----|
D|-0-----9-----12----|
A|-0-----0-----0-----|
E|-------------------|

CHORD SHAPES for Bridge/Alt Riff I:
e|-0-----0-----0-----|
B|-5-----7-----8-----|
G|-7-----6-----5-----|
D|-0-----0-----0-----|
A|-0-----0-----0-----|
E|-------------------|


Riff II:
e|------------------------------------------------|
B|------------------------------------------------|
G|-11-11-11-11-11-9--------11----11-11-11-11p9--11|
D|-0--0--0--0--0--0--------0-----0--0--0--0--0--0-|
A|------------------------------------------------|
E|-10-10-10-10-10-10-------10----10-10-10-10-10-10|
+
e|------------------------------------------------|
B|------------------------------------------------|
G|-13-13-13-13-13-13-------7-----7--5-----5--7---/|
D|-0--0--0--0--0--0--------0-----0--0-----0--0----|
A|------------------------------------------------|
E|-12-12-12-12-12-12-------6-----6--6-----6--6---/|

CHORD SHAPES for Riff II:
e|-------------------|
B|-------------------|
G|-11----13----7-----|
D|-0-----0-----0-----|
A|-x-----x-----x-----|
E|-10----12----6-----|

Chorus/Riff III:
e|------------------------------------------------|
B|-0-------------------------------------(0)------|
G|-0-----------------------2bb---0r-------0-------|
D|-0--------------------------------------0-------|
A|------------------------------------------------|
E|-3----------------------------------------------|
+
e|------------------------------------------------|
B|------------------------------------------------|
G|----------------------------------------xx-xx-x-|
D|-11-11-11-11-11-11---/12----12-12-12-12-xx-xx-xx|
A|-0--0--0--0--0--0-----0-----------------x--x--x-|
E|-9--9--9--9--9--9----/10----10-10-10-10---------|


Alt. Riff III (last measure/segue into Riff I):
e|------------------------------------------------|
B|-0----------------------------------------------|
G|-0----------------------------------------------|
D|-0----------------------------------------------|
A|------------------------------------------------|
E|-3----------------------------------------------|
+
e|------------------------------------------------|
B|-------0----------------------------------------|
G|-2-----------2--------2-------------------------|
D|----------------0-------------------------------|
A|------------------------------------------------|
E|------------------------------------------------|

At the end/finale/outro, just play the first chord from Riff III (G)
and proceed to make improvised noise between the rests.



These are the basics for the song, so just play along and use the chord shapes... it's a 
lot more simple than it sounds.

Feel free to rate, comment, ask questions, make requests, etc.
Cheers!
-Bennyshambles78-
Tap to rate this tab
# A B C D E F G H I J K L M N O P Q R S T U V W X Y Z