Song name
# A B C D E F G H I J K L M N O P Q R S T U V W X Y Z

Unwound - Unauthorized Autobiography tab

Artist: Unwound
Song: "Unauthorized Biography"
Album: Repetition (1996)



Standard Tuning


Guitar
Intro/Verse Riff:
e|(0)(0)------(0)(0)------(0)(0)------(0)(0)------|
B|-0--0--------0--0--------0--0--------0--0-------|
G|-4--4--------2--2--------4--4--------2--2-------|
D|------------------------------------------------|
A|-4--4--------3--3--------4--4--------3--3-------|
E|------------------------------------------------|


Chorus Riff:
e|------(0)------(0)------(3)---------------------|
B|/5-----5--5-----5--5--3--3-----3-(3)----3-(3)-0-|
G|/5-----5--5-----5--5--5--5-----5--5-----5--5-(0)|
D|------------------------------------------------|
A|------------------------------------------------|
E|------------------------------------------------|
+
e|---------(0)------------------------------------|
B|---------(0)------(0)(0)---------(0)------(0)(0)|
G|-------2--2--------2--2--------2--2--------2--2-|
D|-3-----3--3-----3--3--3--3-----3--3-----3--3--3-|
A|-3-----3--3-----3--3--3--3-----3--3-----3--3--3-|
E|-1-----1--1-----1--1--1--1-----1--1-----1--1--1-|


Post-Chorus Riff:
e|-5--5--x--x--5--5--x--x--5--5--x--x--5--5--x--x-|
B|-5--5--x--x--5--5--x--x--5--5--x--x--5--5--x--x-|
G|------------------------------------------------|
D|-3--3--x--x--3--3--x--x--3--3--x--x--3--3--x--x-|
A|------------------------------------------------|
E|------------------------------------------------|


Song Structure:
Intro/Verse Riff x 9
Chorus Riff x 4
Post-Chorus Riff x 2
Verse Riff x 8
Chorus Riff x 4
Post-Chorus Riff x 2
Verse Riff x 2
Post-Chorus Riff x 1
Verse Riff x 2
Post-Chorus Riff x 1
Chorus Riff x 4
Post-Chorus Riff x 


That's it.  Please leave any comments, questions, or requests.  Cheers!
-Bennyshambles78-


Tap to rate this tab
# A B C D E F G H I J K L M N O P Q R S T U V W X Y Z