Song name
# A B C D E F G H I J K L M N O P Q R S T U V W X Y Z

Unwound - Honourosis tab

Artist: Unwound
Song: "Honourosis"
Album: Fake Train (1993)



Standard Tuning



Guitar
Pre-Intro:
 * N.C. for first two measures
 * volume fade in and play loose and quietly
e|------------------------------------------------|
B|-0-------0------------------------0-------------|
G|-4-------4-----------------------(4)------------|
D|-2--------------------------------------------2-|
A|-3--------------------------------------3-----3-|
E|------------------------------------------------|
+
e|------------------------------------------------|
B|-------------------0--------------------------0-|
G|------------------(4)----4--4-----------------4-|
D|-------2--2--2--2--2--2--2--2--2--------2-----2-|
A|-------3--3--3--3-----------3--3-----3--3-------|
E|------------------------------------------------|



Intro:
e|------(0)------(0)------------(0)------(0)------|
B|-0--0--0-----0--0-----0--0--0--0-----0--0-----0-|
G|-4--4--4-----4--4-----4--4--4--4-----4--4-----4-|
D|-2--2--2-----2--2-----2--2--2--2-----2--2-----2-|
A|-3--3--3-----3--3-----3--3--3--3-----3--3-----3-|
E|------------------------------------------------|
+
e|------(0)------(0)------------(0)------(0)------|
B|-0--0--0-----0--0-----0--0--0--0-----0--0-----0-|
G|-4--4--4-----4--4-----4--4--4--4-----4--4-----4-|
D|-2--2--2-----2--2-----2--2--2--2-----2--2-----2-|
A|-3--3--3-----3--3-----3--3--3--3-----3--3-----3-|
E|------------------------------------------------|



Verse:
 * play this for first measure only
e|------------------------------------------------|
B|------------------------------------------------|
G|-4-p0-------------------------------------------|
D|-x--x-----2-----4-----4-----4--4-----4--2--2p-0-|
A|-3--0-----3-----3-----3-----3--3-----3--3--3--3-|
E|------------------------------------------------|
+
 * play this every other time
e|------------------------------------------------|
B|------------------------------------------------|
G|-4-p0-------------------------------------------|
D|-0--0-----2-----4-----4-----4--4--4--4--2--2--0-|
A|-3--3-----3-----3-----3-----3--3--3--3--3--3--3-|
E|------------------------------------------------|



Chorus:
e|------------------------------------------------|
B|------------------------------------------------|
G|------------------------------------------------|
D|-------2--------2-----0--------0--------0-------|
A|------------------------------------------------|
E|-3-(3)-------3--------------3-----3--3-----3--3-|
+
e|------------------------------------------------|
B|------------------------------------------------|
G|------------------------------------------------|
D|-------8--------8-----7--------7~-------7-------|
A|------------------------------------------------|
E|/7--------7--7-----7-----7--7-----7--7-----7--7\|



Interlude:
e|------------------------------------------------|
B|----------3-p0--------------------3-p0----------|
G|------------------------------------------------|
D|-5-p4-p0-----------------5-p4-p0----------------|
A|------------------------------------------------|
E|------------------------------------------------|



Bridge:
e|------------------------------------------------|
B|------------------------------------------------|
G|------------------------------------------------|
D|------------------------------------------------|
A|-5--5--5--5--5--5--5--5--5--5--5--5--7--7--7--7-|
E|-3--3--3--3--3--3--3--3--3--3--3--3--5--5--5--5-|
+
e|------------------------------------------------|
B|------------------------------------------------|
G|------------------------------------------------|
D|------------------------------------------------|
A|-9--9--9--9--9--9--9--9--9--9--9--9--9--9--9--x-|
E|-7--7--7--7--7--7--7--7--7--7--7--7--7--7--7--0-|
+
e|------------------------------------------------|
B|------------------------------------------------|
G|------------------------------------------------|
D|-------2-----------2-----------2--------2-------|
A|-------2-----------2-----------2--------2-------|
E|-3~----------3--3--------3--3--------3-----3~---|
+
e|------------------------------------------------|
B|------------------------------------------------|
G|------------------------------------------------|
D|-5--5--5--5--5--5--5--5--5--5--5--5--7--7--7--7-|
A|-5--5--5--5--5--5--5--5--5--5--5--5--7--7--7--7-|
E|-3--3--3--3--3--3--3--3--3--3--3--3--5--5--5--5-|
+
e|------------------------------------------------|
B|------------------------------------------------|
G|------------------------------------------------|
D|-9--9--9--9--9--9--9--9--9--9--9--9--9--9--9--x-|
A|-9--9--9--9--9--9--9--9--9--9--9--9--9--9--9--x-|
E|-7--7--7--7--7--7--7--7--7--7--7--7--7--7--7--0-|
+
e|------------------------------------------------|
B|------------------------------------------------|
G|-------5----------------------------------------|
D|-------2-----------2-----------2----------------|
A|-------------------2-----------2----------------|
E|-3~-------0--3--3--------3~----------3--3--3~---|
+
e|------------------------------------------------|
B|------------------------------------------------|
G|------------------------------------------------|
D|-5--5--5--5--5--5--5--5--5--5--5--5--7--7--7--7-|
A|-5--5--5--5--5--5--5--5--5--5--5--5--7--7--7--7-|
E|-3--3--3--3--3--3--3--3--3--3--3--3--5--5--5--5-|
+
e|------------------------------------------------|
B|------------------------------------------------|
G|------------------------------------------------|
D|-9--9--9--9--9--9--9--9--9--9--9--9--9--9--9--x-|
A|-9--9--9--9--9--9--9--9--9--9--9--9--9--9--9--x-|
E|-7--7--7--7--7--7--7--7--7--7--7--7--7--7--7--0-|
+
e|------------------------------------------------|
B|------------------------------------------------|
G|------------------------------------------------|
D|-------2-----------2-----------2--------2-------|
A|-------2-----------2-----------2--------2-------|
E|-3~----------3--3--------3--3--------3-----3~---|
+
e|------------------------------------------------|
B|------------------------------------------------|
G|------------------------------------------------|
D|-5--5--5--5--5--5--5--5--5--5--5--5--7--7--7--7-|
A|-5--5--5--5--5--5--5--5--5--5--5--5--7--7--7--7-|
E|-3--3--3--3--3--3--3--3--3--3--3--3--5--5--5--5-|
+
e|------------------------------------------------|
B|------------------------------------------------|
G|------------------------------------------------|
D|-9--9--9--9--9--9--9--9--9--9--9--9--9--9--9--x-|
A|-9--9--9--9--9--9--9--9--9--9--9--9--9--9--9--x-|
E|-7--7--7--7--7--7--7--7--7--7--7--7--7--7--7--0-|
+
e|------------------------------------------------|
B|------------------------------------------------|
G|------------------------------------------------|
D|-------2-----------2-----------2--------2-------|
A|-------2-----------2-----------2--------2-------|
E|-3~----------3--3--------3--3--------3-----3~---|
+
 * trill, play everything double time
e|------------------------------------------------|
B|------------------------------------------------|
G|-7--7--7--7--7--7--7--7--7--7--7--7--9--9--9--9-|
D|-5--5--5--5--5--5--5--5--5--5--5--5--7--7--7--7-|
A|-5--5--5--5--5--5--5--5--5--5--5--5--7--7--7--7-|
E|------------------------------------------------|
+
 * TR, play everything double time
e|------------------------------------------------|
B|------------------------------------------------|
G|-11-11-11-11-11-11-11-11-11-11-11-11-11-11-11-11|
D|-9--9--9--9--9--9--9--9--9--9--9--9--9--9--9--9-|
A|-9--9--9--9--9--9--9--9--9--9--9--9--9--9--9--9-|
E|------------------------------------------------|
+
 * TR, play everything double time
e|------------------------------------------------|
B|-12-12-11-11------------------------------------|
G|-------------12-12-11-11-------------------11-11|
D|-------------------------12-12-11-11-12-12------|
A|------------------------------------------------|
E|------------------------------------------------|
+
 * TR, play everything double time
e|------------------------------------------------|
B|------------------------------------------------|
G|-7--7--7--7--7--7--7--7--7--7--7--7--9--9--9--9-|
D|-5--5--5--5--5--5--5--5--5--5--5--5--7--7--7--7-|
A|-5--5--5--5--5--5--5--5--5--5--5--5--7--7--7--7-|
E|------------------------------------------------|
+
 * TR, play everything double time
e|------------------------------------------------|
B|------------------------------------------------|
G|-11-11-11-11-11-11-11-11-11-11-11-11-11-11-11-11|
D|-9--9--9--9--9--9--9--9--9--9--9--9--9--9--9--9-|
A|-9--9--9--9--9--9--9--9--9--9--9--9--9--9--9--9-|
E|------------------------------------------------|
+
 * TR, play everything double time
e|------------------------------------------------|
B|-12-12-11-11------------------------------------|
G|-------------12-12-11-11-12-12-12-12-12b13r12-12|
D|------------------------------------------------|
A|------------------------------------------------|
E|------------------------------------------------|



Final Verse (fuller, distorted, and faster):
e|------------------------------------------------|
B|-0--0-----0-----0-----0-----0--0--0--0--0--0--0-|
G|-4-p0-----0-----0-----0-----0--0--0--0--0--0--0-|
D|-0--0-----2-----4-----4-----4--4--4--4--2--2--0-|
A|-3--3-----3-----3-----3-----3--3--3--3--3--3--3-|
E|------------------------------------------------|
+
 * last measure plays this/lead into Interlude
e|------------------------------------------------|
B|-0--0-----0-----0-----0-----0--0--0--0--0-------|
G|-4-p0-----0-----0-----0-----0--0--0--0--0-------|
D|-0--0-----2-----4-----4-----4--4--4--4--2-------|
A|-3--3-----3-----3-----3-----3--3--3--3--3-------|
E|------------------------------------------------|



Final Interlude:
 * ((( swell to feedback
e|------------------------------------------------|
B|----------3-p0-----------0(((-------------------|
G|------------------------------------------------|
D|-5-p4-p0-----------------0(((-------------------|
A|------------------------------------------------|
E|------------------------------------------------|



Song Structure:
Pre-Intro
Intro
Verse x 8
Chorus x 4
Verse x 6
Chorus x 4
Interlude x 4
Chorus x 4
Bridge x 1
Final Verse x 4
Interlude x 4
Final Interlude x 1



That's it.  Please feel free to leave any comments, questions, or requests.  Cheers!
-Bennyshambles78-
Tap to rate this tab
 
# A B C D E F G H I J K L M N O P Q R S T U V W X Y Z