Song name
# A B C D E F G H I J K L M N O P Q R S T U V W X Y Z

Unwound - Disappoint tab

Artist: Unwound
Song: "Disappoint"
Album: The Future of What (1995)



Tuning: G A D G B E



Intro:
E|------------------------(0)---------------------|
B|----------0-------------(0)---------------------|
G|-0--0--0--0-------------(0)-------------0--0--0-|
D|-0--0--0--0-----------0--0--------0-----0--0--0-|
A|-x--x--x--x-----------x--x--------x-----x--x--x-|
G|-5--5--5--3-----------3--3--------3-----3--3--3-|
+
E|------------------------(0)---------------------|
B|----------0-------------(0)---------------------|
G|-0--0--0--0--------------0-----0--0-----0--0--0-|
D|-0--0--0--0-----0--0--0--0-----0--0-----0--0--0-|
A|-x--x--x--x-----x--x--x--x-----x--x-----x--x--x-|
G|-0--0--0--2-----2--2--2--2-----2--2-----2--2--0-|



Verse:
E|------------------------------------------------|
B|------------------------------------------------|
G|------------------------------------------------|
D|-0--0--0--0-----------0--0-----0--0-----0--0--0-|
A|-x--x--x--x-----------x--x-----x--x-----x--x--x-|
G|-5--5--0--3-----------3--3-----3--3-----3--3--3-|
+
E|------------------------------------------------|
B|------------------------------------------------|
G|-------------------------0----------------------|
D|-0--0--0--0-----0--0--0--0-----0--0-----0--0--0-|
A|-x--x--x--x-----x--x--x--x-----x--x-----x--x--x-|
G|-0--0--0--2-----2--2--2--2-----2--2-----2--2--0-|



Chorus:
E|------------------------------------------------|
B|------------------------------------------------|
G|-------------------15-15----14-14-14-14-0--0--0-|
D|-------------------0--0-----0--0--0--0--0--0--0-|
A|-13-13-13-13-13----13-13----13-13-13-13-13-13-13|
G|-15-15-15-14-14----15-15----14-14-14-14-14-14-14|
+
E|------------------------------------------------|
B|----------------10-10-10-10-10-10-10-10-10-10-0-|
G|-0--0--0--0--0--9--9--9--10-10-10-10-10-9--9--0-|
D|-0--0--0--0--0--0--0--0--0--0--0--0--0--0--0--0-|
A|-x--x--x--x--x--x--x--x--x--x--x--x--x--x--x--x-|
G|-9--9--9--9--9--9--9--9--9--9--9--9--9--9--9--9-|


Interlude Riff I:
E|------------------------------------------------|
B|------------------------------------------------|
G|----------------------2~------------------------|
D|-------0--------0-------------------------------|
A|----0-----0--------0----------------------------|
G|-3-----------3----------------------------------|

Interlude Riff II:
E|------------------------------------------------|
B|------------------------------------------------|
G|-------9--------9-----9~------------------------|
D|----0-----0-----0-----0--------------0-----0----|
A|-------------------0-----------------0-----0----|
G|-10----------10----10---------------------------|

Medium Interlude Riff:
E|------------------------------------------------|
B|------------------------------------------------|
G|-------2--------2-----2-----------2-------------|
D|----0--0--0-----0--0--0-----0--0--0--0--0--0--0-|
A|-0--0-----0--0-----0-----0--0--0-----0--0--0--0-|
G|-3-----------3-----------3--3--3-----3--3--3--3/|
+
E|------------------------------------------------|
B|------------------------------------------------|
G|-------9--------9-----9--------------9-----9----|
D|-0--0--0--0--0--0--0--0--0--0--0--0--0--0--0--0-|
A|-x-----------x-----x--x--x--x--x--0--x--x--0--X-|
G|-10----------10----10-10-10-10-10-10-10-10-10-10|

Full Interlude Riff:
E|------------------------------------------------|
B|------------------------------------------------|
G|-2--2--2--2--2--2--2--2--2--2--2--2--2--2--2--2-|
D|-0--0--0--0--0--0--0--0--0--0--0--0--0--0--0--0-|
A|-0--0--0--0--0--0--0--0--0--0--0--0--0--0--0--0-|
G|-3--3--3--3--3--3--3--3--3--3--3--3--3--3--3--3-|
+
E|------------------------------------------------|
B|------------------------------------------------|
G|-9--9--9--9--9--9--9--9--9--9--9--9--9--9--9--9-|
D|-0--0--0--0--0--0--0--0--0--0--0--0--0--0--0--0-|
A|-0--0--0--0--0--0--0--0--0--0--0--0--0--0--0--0-|
G|-10-10-10-10-10-10-10-10-10-10-10-10-10-10-10-10|



Song Structure:
Intro x 2
Verse x 6
Chorus x 4
Interlude Riff I x 7
Interlude Riff II x 1
Medium Interlude Riff x 2
Full Interlude Riff x 2
Chorus x 4
Verse x 4
Interlude Riff I x 5
Interlude Riff II x 1
Interlude Riff I x 1
Interlude Riff II x 9


That's it.  Feel free to leave any comment, questions, or requests.  Cheers!
-Bennyshambles78-
Tap to rate this tab
# A B C D E F G H I J K L M N O P Q R S T U V W X Y Z