Song name
# A B C D E F G H I J K L M N O P Q R S T U V W X Y Z

Unwound - Equally Stupid tab

Artist: Unwound
Song: "Equally Stupid"
Album: The Future of What (1995)


Standard Tuning



Guitar
Intro: 5/4 time
e|------------------------------------------------------------|
B|-------0-----------0-----------------0-----------0----------|
G|-------0-----------0-----#-----------0-----------0-----#----|
D|------------------------------------------------------------|
A|----1-----------------------------1-------------------------|
E|-0--------0--3-----------------0--------0--3----------------|



Interlude: 5/4 time
e|------------------------------------------------------------|
B|------(0)---------(0)---------------(0)---------(0)---------|
G|-------0-----------0-----#-----------0-----------0----------|
D|----10-------7--------------------7--------5----------(0)---|
A|-9--------7--------------------8--------5--------------5/---|
E|------------------------------------------------------------|
+
 * final measure / lead into Verse
e|------------------------------------------------------------|
B|-------------------------------------0----------------------|
G|-------0-----------0-----#-----------0-----------0--#-------|
D|----10-------7--------------------7--------5----------------|
A|-9--------7--------------------8--------5-------------------|
E|------------------------------------------------------------|


Verse: 5/4 time
e|------------------------------------------------------------|
B|-------0-----------0-----0-----------0-----------0-----0----|
G|-------0-----------0-----0-----------0-----------0-----0----|
D|-------x-----------x-----x-----------x-----------x-----x----|
A|----1-------------(1)---(2)-------1-------------(1)---(2)---|
E|-0--------0--3-----------------0--------0--3----------------|
+
 * last measure / lead into Pre-Chorus
e|------------------------------------------------------------|
B|-------0-----------0-----0-----------0-----------0----------|
G|-------0-----------0-----0-----------0-----------0----------|
D|-------x-----------x-----x-----------x-----------x----------|
A|----1-------------(1)---(2)-------1-------------(1)----2/---|
E|-0--------0--3-----------------0--------0--3----------------|



Pre-Chorus: 3/4 time
e|------------(0)---------------------------------------------------------|
B|------------(0)---(0)(0)(0)------------------(0)(0)(0)(0)----8----(0)---|
G|-3-------(3)-3-(3)p2-h3-p2-----0----(0)---(0)-6--6--6-/10---(0)----10---|
D|-0-------(0)-0-(0)-0--0--0-----0----(0)---(0)---------------------------|
A|-x-------(x)-x-(x)-x--x--x-----0-----x-----x----------------------------|
E|-3-------(3)-3-(3)-3-----------------5-----5----------------------------|
+
 * last measure / lead into chorus
e|------------(0)---------------------------------------------------------|
B|------------(0)------(0)(0)(0)---------------(0)(0)(0)(0)----8----(0)---|
G|-3-----------3-(3)p2-h3-p2-----0----(0)---(0)-6--6--6-/10---(0)----10/--|
D|-0-------(0)-0-(0)-0--0--0-----0----(0)---(0)---------------------------|
A|-x-------(x)-x-(x)-x--x--x-----0-----x-----x----------------------------|
E|-3-------(3)-3-(3)-3-----------------5-----5----------------------------|


Chorus: 3/4 time
e|-------13----#-----------------------------15----#----------------------|
B|-12----12----#-----------------------12----12----#----------------------|
G|-14----14----#-----------------------14----14----#----------------------|
D|------------------------------------------------------------------------|
A|------------------------------------------------------------------------|
E|------------------------------------------------------------------------|



Final Verse: 5/4 time
e|------------------------------------------------------------|
B|-0-----0-----0-----0-----0-----0-----0-----0-----0-----0----|
G|-0-----0-----0-----0-----0-----0-----0-----0-----0-----0----|
D|-x-----x-----x-----x-----x-----x-----x-----x-----x-----x----|
A|-1-----1-----x-----x-----2-----1-----1-----x-----x-----2----|
E|-0-----------3-----3-----3-----0-----------3-----3-----3----|



Outro: 3/4 time
e|------------------------------------------------------------|
B|-----------------------------------------0------------------|
G|-------0-----------------0--------------0-------------------|
D|-------5-----------------5-------------0--------------------|
A|-4-----------------3------------------x---------------------|
E|-------------------------------------3----------------------|



Song Structure:
Intro x 4
Interlude x 4
Verse x 4
Interlude x 4
Pre-Chorus x 4
Chorus x 4
Pre-Chorus x 4
Chorus x 4
Final Verse x 4
Interlude x 4
Outro x 1



That's it.  Feel free to leave any comments, questions, or requests.  Cheers!
-Bennyshambles78-
Tap to rate this tab
# A B C D E F G H I J K L M N O P Q R S T U V W X Y Z