Song name
# A B C D E F G H I J K L M N O P Q R S T U V W X Y Z

Unwound - Fiction Friction tab

Artist: Unwound
Song: "Fiction Friction"
Album: New Plastic Ideas (1994)



Standard Tuning



False Intro:
Guitar I
e|-0-----------------------#----------------------|
B|-3--0-----------------0--#----------------------|
G|-0-----------------------#----------------------|
D|-0-----------------0-----#----------------------|
A|-3-----------------------#----------------------|
E|------------------------------------------------|



Intro I:
Guitar I
e|-0--------------------3-----------3-------------|
B|-3--0--------------0-----------0-----------0----|
G|-0-----------------5--------5-----------5-----5-|
D|-0----------------------------------------------|
A|-3----------------------------------------------|
E|------------------------------------------------|
+
e|------------------------------------------------|
B|-------0-----------0-----------3-----3s/5--3----|
G|----5-----5-----5-----0-----------------------0-|
D|----------------------------5----(5)------------|
A|-0----------(0)---------------------------------|
E|-------------------------0----------------------|
+
Intro II:
Guitar I
e|----------------------3-----------3-------------|
B|-------3--0-----0--0-----------0-----------0----|
G|-0----(0)(0)---(0)-5--------5-------(5)-5-----5-|
D|-x----------------------------------------------|
A|-3----------------------------------------------|
E|------------------------------------------------|
+
e|------------------------------------------------|
B|-------0-----------0-----------3-----3s/5--3----|
G|----5-----5-----5-----0-------(0)-------------0-|
D|----------------------------5----(5)------------|
A|-0----------(0)---------------------------------|
E|-------------------------0----------------------|
+
Guitar II
e|----------------------3-----3--3----------------|
B|-------1--0-----0--1--0-----1--1--1--1--0--1--1-|
G|-0-----0-(0)---(0)-0--------0--0--0--0--0--0--0-|
D|-x----------------------------------------------|
A|-3----------------------------------------------|
E|------------------------------------------------|
+
e|------------------------------------------------|
B|----1--0--1-----1--0--1--------3-----3s/5--3----|
G|----0--0--0-----0--0--0-------(0)-------------0-|
D|----------------------------5----(5)------------|
A|-0----------(0)---------------------------------|
E|-------------------------0----------------------|



Verse I:
Guitar I
e|------------------------------------------------||
B|(0)---------------------------------------------||
G|-0-----------------------0--0--0--0--0--0--0----|| x 2
D|-x-----------------------x--x--x--x--x--x--x----||
A|-3--------3--2-h3--3--3--2-h3--3--3--3--3--3----||
E|------------------------------------------------||
+
e|------------------------(0)---------------------|
B|---------------------(0)(0)-5--5--5--5--3--3--0-|
G|-2-----------2-----2--2--2--2--2--2--2--2--2--0-|
D|-2-----------2-----2--2--2--2--2--2--2--0--0--0-|
A|-0-----------0-----0--0--0-(0)------------------|
E|------------------------------------------------|
+
Guitar II
e|------------------------------------------------||
B|(0)----------------0----------------------------||
G|-0--------------------0-----0--0----------------|| x 2
D|-x--------------------------x--x-------/5--5--0-||
A|-3-----------------------2-h3--3--3-3--/5--5--0-||
E|------------------------------------------------||
+
e|------------------------------------------------|
B|-5-----------5----------------------------------|
G|-2-----------2-----2--2--2--9--9--9--9--7--7----|
D|-2-----------2-----2--2--2--x--x--x--x--x--x----|
A|-0-----------0-----0--0--0--7--7--7--7--5--5----|
E|------------------------------------------------|
+
Verse II:
Guitar I
e|------------------------------------------------||
B|-3--------3--3-----3-----3-----3--3--3--5--5----||
G|-0-----0--0--0-----0-----0-----0--0--0--0--0----|| x 2
D|-x-----x--x--x-----x-----x-----x--x--x--x--x----||
A|-3-----3--3--3-----3-----3-----3--3--3--5--5----||
E|------------------------------------------------||
+
e|-0-----------0----------(0)---------------------|
B|-0-----------0-----0-(0)(0)-5--5--5--5--3--3--0-|
G|-2-----------2--------2--2--2--2--2--2--2--2--0-|
D|-2-----------2--------2--2--2--2--2--2--0--0--0-|
A|-0-----------0--------0--0-(0)------------------|
E|------------------------------------------------|
+
e|------------------------------------------------||
B|-3--------3--3-----3-----3-----3--3--3--5--5----||
G|-0-----0--0--0-----0-----0-----0--0--0--0--0----|| x 2
D|-x-----x--x--x-----x-----x-----x--x--x--x--x----||
A|-3-----3--3--3-----3-----3-----3--3--3--5--5----||
E|------------------------------------------------||
+
e|-0-----------0----------(0)---------------------|
B|-0-----------0-----0-(0)(0)-5--5--5--5--5b-5br0-|
G|-2-----------2--------2--2--2--2--2--2--2--2br0-|
D|-2-----------2--------2--2--2--2--2--2--2--2br0-|
A|-0-----------0--------0--0--0--0--0--0--0--0--0-|
E|------------------------------------------------|
+
Guitar II
e|------------------------------------------------||
B|------------------------------------------------||
G|-0-----0--0--0-----0-----0-----0--0--0--0--0----|| x 2
D|-x-----x--x--x-----x-----x-----x--x--x-/5--5----||
A|-3-----3--3--3-----3-----3-----3--3--3-/5--5----||
E|------------------------------------------------||
+
e|------------------------------------------------|
B|-5-----------5----------------------------------|
G|-2-----------2-----2--2--2--9--9--9--9--7--7----|
D|-2-----------2-----2--2--2--x--x--x--x--x--x----|
A|-0-----------0-----0--0--0--7--7--7--7--5--5----|
E|------------------------------------------------|
+
e|------------------------------------------------||
B|------------------------------------------------||
G|-0-----0--0--0-----0-----0-----0--0--0--0--0----|| x 2
D|-x-----x--x--x-----x-----x-----x--x--x-/5--5----||
A|-3-----3--3--3-----3-----3-----3--3--3-/5--5----||
E|------------------------------------------------||
+
e|------------------------------------------------|
B|-5-----------5-----------------------------0--0-|
G|-2-----------2-----2--2--2--9--9--9--9--9--9--0-|
D|-2-----------2-----2--2--2--x--x--x--x--x--x--0-|
A|-0-----------0-----0--0--0--7--7--7--7--7--7--0-|
E|------------------------------------------------|



Chorus I:
Guitars I + II
e|------------------------------------------------|
B|-0--0--0--0--0--0--0--0--0--0--0--0--0--0--0--0-|
G|-17-17-17-17-17-17-17-17-16-16-16-16-16-16-16-16|
D|-x--x--x--x--x--x--x--x--x--x--x--x--x--x--x--x-|
A|-14-14-14-14-14-14-14-14-14-14-14-14-14-14-14-14|
E|------------------------------------------------|
+
e|------------------------------------------------|
B|-0--0--0--0--0--0--0--0--0--0--0--0--0--0--0--0-|
G|-16-16-16-16-16-16-16-16-16-16-16-16-16-16-16-16|
D|-14-14-14-14-14-14-14-14-14-14-14-14-14-14-14-14|
A|-14-14-14-14-14-14-14-14-14-14-14-14-14-14-14-14|
E|------------------------------------------------|



Interlude:
Guitar I
 * pull and push vibrato bar, go into feedback
 * random behind the bridge plucking
e|------------------------------------------------|
B|---------------------------------------------!--|
G|------------------------------------------!-!---|
D|-9^v^v^v-----------)-))-)))------------!-!------|
A|-x-----------------)-))-)))-----------!---------|
E|-7^v^v^v-----------)-))-)))---------------------|
+
Guitar II
e|------------------------------------------------|
B|------------------------------------------------|
G|-4~---------------------------------------------|
D|-2~---------------------------------------------|
A|-2~---------------------------------------------|
E|-0~---------------------------------------------|



Instrumental Bridge:
Guitars I + II
e|------------------------------------------------|
B|------------------------------------------------|
G|-18-18-18-18-18-18-18-18-19-19-19-19-21-21-21-21|
D|-x--x--x--x--x--x--x--x--x--x--x--x--x--x--x--x-|
A|-16-16-16-16-16-16-16-16-17-17-17-17-19-19-19-19|
E|------------------------------------------------|
+
Guitar I
e|------------------------------------------------|
B|------------------------------------------------|
G|-13~\--------9~\---------4~/---------9~\--------|
D|-x-----------x-----------x-----------x----------|
A|-11~\--------7~\---------2~/---------7~\--------|
E|-0--0--0--0--0--0--0--0--0--0--0--0--0--0--0--0-|
+
Guitar II
e|-0--0--0--0--0--0--0--0--0--0--0--0--0--0--0--0-|
B|-0--0--0--0--0--0--0--0--0--0--0--0--0--0--0--0-|
G|-9--9--9--9--9--9--9--9--9--9--9--9--9--9--9--9-|
D|-x--x--x--x--x--x--x--x--x--x--x--x--x--x--x--x-|
A|-7--7--7--7--7--7--7--7--7--7--7--7--7--7--7--7-|
E|-0--0--0--0--0--0--0--0--0--0--0--0--0--0--0--0-|
+
Guitars I + II
e|------------------------------------------------|
B|------------------------------------------------|
G|-17-17-19-21-17-17-19-21-17-17-19-21-19-18-17-17|
D|-x--x--x--x--x--x--x--x--x--x--x--x--x--x--x--x-|
A|-15-16-18-20-15-16-18-20-15-16-18-20-18-17-15-15|
E|------------------------------------------------|
+
Guitar I
e|------------------------------------------------|
B|------------------------------------------------|
G|-13~\--------9~\---------4~/---------9~\--------|
D|-x-----------x-----------x-----------x----------|
A|-11~\--------7~\---------2~/---------7~\--------|
E|-0--0--0--0--0--0--0--0--0--0--0--0--0--0--0--0-|
+
Guitar II
e|-0--0--0--0--0--0--0--0--0--0--0--0--0--0--0--0-|
B|-0--0--0--0--0--0--0--0--0--0--0--0--0--0--0--0-|
G|-16\9--9--9--4~/9--9--9--4~/9--9--9--4~/9--9--9-|
D|-x--x--x--x--x--x--x--x--x--x--x--x--x--x--x--x-|
A|-14\7--7--7--2~/7--7--7--2~/7--7--7--2~/7--7--7-|
E|-0--0--0--0--0--0--0--0--0--0--0--0--0--0--0--0-|
+
Guitars I + II
e|------------------------------------------------|
B|------------------------------------------------|
G|------------------------------------------------|
D|----------12-14-14-14-14-14-12----12------------|
A|-12-12-15----------------------14----14-14-14-14|
E|------------------------------------------------|
+
e|------------------------------------------------|
B|------------------------------------------------|
G|------------------------------------------------|
D|------------------------------------------------|
A|-12-14-14-14-14b14^14^14^14^14^14r14-14-14-14-14|
E|------------------------------------------------|
+
e|------------------------------------------------|
B|------------------------------------------------|
G|------------------------------------------------|
D|-------12----12-14-14-14-14-12----12------------|
A|-14-14----14-------------------14----14-14-14-14|
E|------------------------------------------------|
+
e|------------------------------------------------|
B|------------------------------------------------|
G|-----------------------------------------------0|
D|-----------------------------------------------0|
A|-12-14-14-14-14b14^14^14^14^14^14r14-14-14-14\r0|
E|------------------------------------------------|



Chorus II:
Guitars I + II
e|(11-11-11-11-11-11-11-11-10-10-10-10-10-10-10)--|
B|------------------------------------------------|
G|------------------------------------------------|
D|-10-10-10-10-10-10-10-10-9--9--9--9--9--9--9--9-|
A|-x--x--x--x--x--x--x--x--x--x--x--x--x--x--x--x-|
E|-8--8--8--8--8--8--8--8--8--8--8--8--8--8--8--8-|
+
Guitar I
e|------------------------------------------------|
B|------------------------------------------------|
G|-13~\--------9~\---------4~/---------9~\--------|
D|-x-----------x-----------x-----------x----------|
A|-11~\--------7~\---------2~/---------7~\--------|
E|-0--0--0--0--0--0--0--0--0--0--0--0--0--0--0--0-|
+
Guitar II
e|-0--0--0--0--0--0--0--0--0--0--0--0--0--0--0--0-|
B|-0--0--0--0--0--0--0--0--0--0--0--0--0--0--0--0-|
G|-9--9--9--9--9--9--9--9--9--9--9--9--9--9--9--9-|
D|-x--x--x--x--x--x--x--x--x--x--x--x--x--x--x--x-|
A|-7--7--7--7--7--7--7--7--7--7--7--7--7--7--7--7-|
E|-0--0--0--0--0--0--0--0--0--0--0--0--0--0--0--0-|



Outro:
Guitar II
 * gradually push down the vibrato further each bar
e|------------------------------------------------|
B|------------------------------------------------|
G|-4~---------------------------------------------|
D|-2~---------------------------------------------|
A|-2~---------------------------------------------|
E|-0----------------------------------------------|



Song Structure:
False Intro
Intro I x 2
Intro II x 2
Verse I x 2
Verse II x 2
Chorus I x 4
Interlude x 4
Chorus I x 4
Interlude x 4
Instrumental Bridge
Chorus II x 4
Interlude x 9
Outro x 8



That's it.  Feel free to rate, leave comments, questions, or requests.  Cheers!
-Bennyshambles78-


Tap to rate this tab
# A B C D E F G H I J K L M N O P Q R S T U V W X Y Z