Song name
# A B C D E F G H I J K L M N O P Q R S T U V W X Y Z

Unwound - Fiction Friction tab

Artist: Unwound
Song: Fiction Friction
Album: New Plastic Ideas

Tuning: Standard

Tabbed by: budameat

Intro A:1x

E |--0--------------------------|
B |--3-----0-----------------0--|
G |--0--------------------------|
D |--0--------------------0-----|
A |--3--------------------------|
E |-----------------------------|

Intro B: 2x

---0--------3----------------------------------------------------|
---3--0--1--0------1--0--1--1------1-----1--0------1-----1--0----|
---0-------------------------------------------------------------|
---0-------------------------------------------------------------|
-3-3----------------------------------0---------------0----------|
-----------------------------------------------------------------|


--------------------------------------------0----------------3-------|
-----------3----------3s5--5-------3--0-----3--0-------0--1--0--1----|
--0-----0----------0------------------------0------------------------|
--------------------------------------------x------------------------|
--------------------------------------- 3 --3------------------------|
-----0---------------------------------------------------------------|


----------3---------------------------------------------------|
--0--1-1--0--1------1--0-------1-----1--0----------------3----|
------------------------------------------------0-----0-------|
--------------------------------------------------------------|
-----------------0----------------0---------------------------|
---------------------------------------------------0----------|


--------------------------|
-----3s5--5-------3--0----|
--0-----------------------|
--------------------------|
--------------------------|
--------------------------|

Verse: 4x

E|---0--------------------------------0--------------------------------|
B|---0--------0-----------------0-0-0-0--------0-----------------0-0-0-|
G|---0--------0-------0---------0-0-0-0--------0-------0---------0-0-0-|
D|--(0)---0-0-0---0-0-0---0-0-0-x-x-0-x----0-0-0---0-0-0---0-0-0-x-x-0-|
A|---3----3-3-2h3-3-3-2h3-3-3-3-5-5---3----3-3-2h3-3-3-2h3-3-3-3-5-5---|
E|---------------------------------------------------------------------|
"Its shattered day..."

E|-------0-------x-(0)---------------|
B|-------0-------0--0--0--0--0--0----|
G|--2----2--2-2--x--x--x--x--x--x----|
D|--2----2--2-2-/14-14-14-14-12-12---|
A|--0----0--0-0--0--0--0--0--0--0----|
E|-----------------------------------|
"Seems wrong...."

Chorus:

"You'd make great fiction..."

E|---------------------------------------------------------------|
B|--13--------12--------9----------------------------------------|
G|-(0)--------0--------(0)---------------------------------------|
D|--x---8x----x---8x----x---16x----------------------------------|
A|--15--------14--------11---------------------------------------|
E|---------------------------------------------------------------|

Post Chorus:4x

"so it's history,..."
E|---------------------------------------------------------------|
B|---------------------------------------------------------------|
G|--0------------------------------------------------------------|
D|-(0)------- behind bridge picks -------------------------------|
A|--2b~ ---------------------------------------------------------|
E|---------------------------------------------------------------|

Solo:

E|---------------------------------------------------------------|
B|--14------15------17-17\---------------------------------------|
G|--0-------0-------0--0-----13\--9\-----9-----------------------|
D|--x---8x--x---5x--x--x-----x----x---9--x-----------------------|
A|--16------17------19-19\---11\--7\--x--7-----------------------|
E|------------------------------------7--------------------------|

E|---------------------------------------------------------------|
B|---------------------------------------------------------------|
G|-------------------------------------13---9-----9--------------|
D|--x--x--x--x--x--x--x--x--x--x--x----x----x--9--x--------------|
A|--15-15-16-19-15-15-16-19-15-16-19\--11---7--x--7--------------|
E|---------------------------------------------7-----------------|

E|------------------------------------------------------------------------------------------|
B|------------------------------------------------------------------------------------------|
G|----------------------------------------------------- aprox. no - listen to track --------|
D|----------12-14-14-14-14-14-12----12------------------------------------------------------|
A|/12-12-14----------------------14----14-14-14-14-12-14 14-14-14-14-14-14-14-14b14b14b-14--|
E|------------------------------------------------------------------------------------------|

E|------------------------------------------------------------------------------------------|
B|------------------------------------------------------------------------------------------|
G|------------------------------------------------------------------------------------------|
D|-------12----12-14-14-14-14-12----12------------------------------------------------------|
A|-14-14----14-------------------14----14-14-14-14-12-14 14-14-14-14-14-14-14-14b14b14b-14--|
E|------------------------------------------------------------------------------------------|

Last Chorus variation:

E|---------------------------------------------------------------|
B|--13--------12-------------------------------------------------|
G|-(0)--------0---------13----9-----9----------------------------|
D|--x---8x----x---8x----x-----x--9--x----------------------------|
A|--15--------14--------11\---7--x--7----------------------------|
E|-------------------------------7-------------------------------|

END

Song structure:

Intro A: 1x
Intro B: 2x
Verse: 4x
Chorus: 4x
Post Chorus: 4x
Chorus: 4x
Post Chorus: 4x
solo
Last Chorus: 4x
Post Chorus: 8x + off beat noisy thingy


lyrics:

it's a shattered day all around
it's a shattered day in our town,
seems wrong,
it's a saturnday all the time
it's a saturnday once again,
nice time.
it's another day down the drain
it's another day just the same,
so what,
it's a stupid day on this day
it's a stupid day everyday,
good bye
you'd make great fiction, you make great friction.
you'd make great fiction, you make great friction.
so it's history, you can count me out, it's not apathy, it's incomplete
you'd make great fiction, you make great friction.
you'd make great fiction, you make great friction.
flying in the mainstream, second third time not a dream, and a crown don't mean a thing, 
when it's made of pain.
you'd make great fiction, you make great friction.
you'd make great fiction, you make great friction.
i'm not the king of pain, put it down the drain, shame it's not obvoius, i'm not a prodigy.




Footnote:

The sound is heavily feedbacked and noisy so its hard to hear the correct chords. Any 
comments are welcome.

Another way of playin the chorus:

E|---------------------------------------------------------------|
B|---------------------------------------------------------------|
G|--17-------16--------13----------------------------------------|
D|--x--8x----x---8x----x---16x-----------------------------------|
A|--15-------14--------11----------------------------------------|
E|---------------------------------------------------------------|

:)
Tap to rate this tab
# A B C D E F G H I J K L M N O P Q R S T U V W X Y Z