Song name
# A B C D E F G H I J K L M N O P Q R S T U V W X Y Z

Unwound - Arboretum tab

Artist: Unwound
Song: "Arboretum"
Album: New Plastic Ideas (1994)



Tuning: F A D G B E



Verse
E|------------------------------------------------|
B|------------(0)---------------(0)(0)(0)-0-------|
G|-------------0-(0)-------2--2--2--2--2--0--0-(0)|
D|-------3----(3)-3-(3)-0--2--2--2--2--2-(2)-2--0-|
A|-3-(3)-3--3-----3--3--0--0--0--0--0--0----(0)-0-|
F|-0-(0)----0--------0----------------------------|



Pre-Chorus:
E|------------------------------------------------|
B|----------------------------------------0--0----|
G|----------------------------------------0--0--0-|
D|-7--7--8--8--8--7--7--7--7--7--7--7--7--5--5--0-|
A|-x--x--x--x--x--x--x--x--x--x--x--x--x--x--x--0-|
F|-5--5--5--5--5--5--5--5--6--6--6--6--6--6--6----|
+
E|-------------------0----------------------------|
B|-------------------0--0--------------0-----0----|
G|-------------------x--x-----------0--0-----0----|
D|-7--7--8--8--8--7--7--7--7--7--7--0--0-----0----|
A|-x--x--x--x--x--x--x--x--x--x--x--x--x-----x----|
F|-5--5--5--5--5--5--5--5--6--6--6--6--6-----6----|



Chorus:
E|------------------------------------------------|
B|------------------------------------------------|
G|-------------12-------------12-12-------12-12-0-|
D|(3)----------x--------------x--x--------x--x--0-|
A|(3)----------10-------------10-10-------10-10-0-|
F|-0--------------------0-----------0-------------|
+
E|------------------------------------------------|
B|-0----------------------------------------------|
G|-0--------------------------12-12-12-12\10-10---|
D|-12----------12----12-12/14-14-14-14-14\12-12---|
A|-10----------10----10---------------------------|
F|-11---------------------------------------------|



Interlude I:
E|------------------------------------------------|
B|------------------------------------------------|
G|------------------------------------------------|
D|------------------------------------------------|
A|-8----------------------------------------------|
F|-0----------------------------------------------|
+
 * droning feedback on open F
 * point headstock at amp, get close, rest on top
E|------------------------------------------------||
B|------------------------------------------------||
G|------------------------------------------------|| x 13
D|------------------------------------------------||
A|------------------------------------------------||
F|[0])-))-)))-------------------------------------||
+
Interlude II:
E|------------------------------------------------|
B|--------------------------------------<9>-------|
G|-------------------------------------<9>--------|
D|-0----------------------------------<9>---------|
A|------------------------------------------------|
F|------------------------------------------------|
+
E|------------------------------------------------|
B|--------------------------------------<9>-------|
G|-------------------------------------<9>--------|
D|<7>---------------------------------<9>---------|
A|<7>---------------------------------------------|
F|<7>---------------------------------------------|
+
E|------------------------------------------------|
B|--<7>---------------------------------<9>-------|
G|-<7>---------------------------------<9>--------|
D|-0----------------------------------<9>---------|
A|------------------------------------------------|
F|------------------------------------------------|
+
E|------------------------------------------------|
B|------------------------------------------------|
G|------------------------------------------------|
D|<7>---------------------------------------------|
A|<7>---------------------------------------------|
F|<7>---------------------------------------------|
+
E|------------------------------------------------|
B|-0------------------------------------<9>-------|
G|-4-----------------------------------<9>--------|
D|-0----------------------------------<9>---------|
A|------------------------------------------------|
F|------------------------------------------------|
+
E|------------------------------------------------|
B|------------------------------------------------|
G|----------------------------12~-----------------|
D|<7>-------------------------12~-----------------|
A|<7>---------------------------------------------|
F|<7>---------------------------------------------|
+
E|------------------------------------------------|
B|<7>-----------------------------------<9>-------|
G|<7>----------------------------------<9>--------|
D|-0----------------------------------<9>---------|
A|------------------------------------------------|
F|------------------------------------------------|
+
E|------------------------------------------------|
B|------------------------------------------------|
G|------------------------------------------------|
D|<7>---------------------------------------------|
A|<7>---------------------------------------------|
F|<7>---------------------------------------------|
+
E|------------------------------------------------|
B|------------------------------------------------|
G|-------------------------------------------0----|
D|<9>---------------------------------<12>--------|
A|<9>---------------------------------------------|
F|<9>---------------------------------------------|
+
E|------------------------------------------------|
B|------------------------------------------------|
G|------------------------------------------------|
D|<7>---------------------------------------------|
A|<7>---------------------------------------------|
F|<7>---------------------------------------------|
+
E|------------------------------------------------|
B|---<9>------------------------------------------|
G|--<9>-------------------------------------------|
D|-<9>--------------------------------------------|
A|<9>----------------------------------x----------|
F|-------------------------------------2----------|
+
E|------------------------------------------------|
B|------------------------------------------------|
G|------------------------------------<9>---------|
D|<7>---------------------------------------------|
A|<7>---------------------------------------------|
F|<7>---------------------------------------------|
+
E|------------------------------------------------|
B|--------------------------------------<12>------|
G|-------------------------------------<12>-------|
D|<9>---------------------------------<12>--------|
A|<9>---------------------------------------------|
F|<9>---------------------------------------------|
+
E|------------------------<7>---------------------|
B|------------------------------------------------|
G|------------------------------------------------|
D|<7>---------------------------------------------|
A|<7>---------------------------------------------|
F|<7>---------------------------------------------|
+
E|------------------------------------------------|
B|--------------------------------------<12>------|
G|-------------------------------------<12>-------|
D|<9>---------------------------------<12>--------|
A|<9>---------------------------------------------|
F|<9>---------------------------------------------|
+
E|------------<7>---------------------------------|
B|------------------------------------------------|
G|------------------------------------------------|
D|<7>---------------------------------------------|
A|<7>---------------------------------------------|
F|<7>---------------------------------------------|
+
Interlude III:
E|------------------------------------------------|
B|------------------------------------------------|
G|-2----------------------------------------------|
D|-------------------0-----------0-----------0----|
A|----------------3--------3-----------3--------3-|
F|------------------------------------------------|
+
E|------------------------------------------------|
B|------------------------------------------------|
G|------------------------------------------------|
D|----------------------0-----------0--------0----|
A|-0-----0--0--0-----0--------0-----------0-----0-|
F|------------------------------------------------|
+
E|------------------------------------------------|
B|-0----------------------------------------------|
G|-------2--------------------2-----------2-------|
D|-------------0-----0--0-----------0--------0----|
A|------------------------------------------------|
F|------------------------------------------------|
+
E|------------------------------------------------|
B|------------------------------------------------|
G|------------------------------------------------|
D|----------------------------------0--------0----|
A|-3-----3--3--3-----3--3-----0-----------0-----0-|
F|------------------------------------------------|
+
Interlude IV:
E|-3--0-----3--0-----3--0-----3--0-----3--0-------|
B|-0--------0--------0--------0--------0----------|
G|-2-----2--2-----2--2-----2--2-----2--2-----2----|
D|------------------------------------------------|
A|------------------------------------------------|
F|------------------------------------------------|
+
E|------------------------------------------------|
B|------------------------------------------------|
G|------------------------------------------------|
D|----------------------0-----------0--------0----|
A|-0-----0--0--0-----0--------0-----------0-----0-|
F|------------------------------------------------|
+
E|-3--0-----3--0-----3--0-----3--0-----3--0-------|
B|-0--------0--------0--------0--------0----------|
G|-2-----2--2-----2--2-----2--2-----2--2-----2----|
D|------------------------------------------------|
A|------------------------------------------------|
F|------------------------------------------------|
+
E|------------------------------------------------|
B|------------------------------------------------|
G|------------------------------------------------|
D|----------------------------------0--------0----|
A|-3-----3--3--3-----3--3-----0-----------0-----0-|
F|------------------------------------------------|



Ending;
E|----------------------------10--0---------------|
B|-12b-----------------\8~--------0-------11~-----|
G|-10b--------------------------------------------|
D|------------------------------------------------|
A|------------------------------------------------|
F|------------------------------------------------|



Song Structure:
Verse x 8
Pre-Chorus
Chorus x 2
Verse x 4
Pre-Chorus
Chorus x 2
Interlude I
Interlude II
Interlude III x 2
Interlude IV
Interlude III
Chorus x 2
Ending



That's it.  Feel free to rate, leave comments, questions, or requests.  Cheers!
-Bennyshambles78-
Tap to rate this tab
# A B C D E F G H I J K L M N O P Q R S T U V W X Y Z