Song name
# A B C D E F G H I J K L M N O P Q R S T U V W X Y Z

Unwound - Fingernails On A Chalkboard tab

Artist: Unwound
Song: "Fingernails on a Chalkboard"
Album: Repetition (1996)



Tuning: Standard



Riff:
e|------------------------------------------------|
B|-9--9--9--9--9--9--9--9--9--9--9--9--9--9--9--9-|
G|-6--6--6--6--6--6--6--6--6--6--6--6--6--6--6--6-|
D|-6--6--6--6--6--6--6--6--6--6--6--6--6--6--6--6-|
A|(0)---------------(0)---(0)---------------(0)---|
e|------------------------------------------------|
+
e|------------------------------------------------|
B|-------------8--8-----------------8--8----------|
G|-------6--6--6--6--6--6-----6--6--6--6--6--6--6-|
D|-7--7--7--7--7--7--7--7--7--7--7--7--7--7--7--7-|
A|(0)(0)------------------(0)---------------------|
e|------------------------------------------------|



Song Structure:
Play riff ad infinitum until 2:53 start playing distorted improvised noise/skronk along 
with delay feedback, while bass and drums hold the riff for the remainder of the song.



That's it.  Please leave any comments, questions, or requests.  Cheers!
-Bennyshambles78-
Tap to rate this tab
# A B C D E F G H I J K L M N O P Q R S T U V W X Y Z