Song name
# A B C D E F G H I J K L M N O P Q R S T U V W X Y Z

Unwound - Devoid tab

Artist: Unwound
Song: "Devoid"
Album: Repetition (1996)



Tuning: F# A D G B E



Intro:
 * wait for 2 bars of bass intro
E |------------------------------------------------|
B |----------------------------------0--------0----|
G |----------------------------------x-----5-------|
D |-------------7--------7-----7-----7-------------|
A |-------------x--------x-----x-----x-------------|
F#|-------------6--------6-----6-----6-------------|
+
E |------------------------------------------------|
B |----------------------0-------------------------|
G |-------------5--------------5--------------5--5-|
D |-------7-----------7--------------7-----7-----7-|
A |------------------------------------------------|
F#|-6----------------------------------------------|
+
E |------------------------------------------------|
B |----------------------0-------------------------|
G |-------------5--------------5-----------5--0----|
D |-------7-----------7--------------7-------------|
A |------------------------------------------------|
F#|-6----------------------------------------------|
+
E |------------------------------------------------|
B |------------------------------------------------|
G |-------------4--------4-----4-----4-----4-----4-|
D |-------2-----------2--2-----2-----2-----2-----2-|
A |-4--------------------4-----4-----4-----4-----4-|
F#|------------------------------------------------|



Verse:
E |------------------------------------------------||
B |----------------------0----(0)------------------||
G |-------------5-------(5)----5--------------5--5-|| x 2
D |(7)----7-----------7--------------7-----7-----7-||
A |(x)---(0)----------x--------------------x-----x-||
F#|-6-----------------6--------------------6-----6-||
+
E |------------------------------------------------|
B |------------(0)-------0-------------------------|
G |-------------5--------------5-----------5--0----|
D |(7)----7-----------7--------------7-------------|
A |(x)---(0)----------x--------------x-------------|
F#|-6-----------------6--------------6-------------|
+
E |------------------------------------------------|
B |------------------------------------------------|
G |-------------4--------4-----4-----4-----4-----4-|
D |-------2-----------2--2-----2-----2-----2-----2-|
A |-4--------------------4-----4-----4-----4-----4-|
F#|------------------------------------------------|



Chorus:
E |------------------------------------------------|
B |------------(0)------(0)---(0)---(0)---(0)---(0)|
G |-------------4--------4-----4-----4-----4-----4-|
D |-------2-----2----(2)-2-----2-----2-----2-----2-|
A |-4-----------4----(4)-4-----4-----4-----4-----4-|
F#|------------------------------------------------|
+
E |------------------------------------------------|
B |(0)---(0)---(0)---(0)(0)---(0)(0)(0)---(0)(0)(0)|
G |-4-----4-----4-----4--4-----4--4--4-----4--4--0-|
D |-2-----2-----2-----2--2-----2--2--2-----2--2--0-|
A |-4-----4-----4-----4--4-----4--4--4-----4--4--0-|
F#|------------------------------------------------|
+
E |------------------------------------------------|
B |------------------------------------------------|
G |----------------------0----------------(0)------|
D |-------------3--------------3--------------3----|
A |-------5-----------5-----------5--------5--5----|
F#|-4--------------------------------4--------4----|
+
E |------------------------------------------------|
B |------------------------------------------------|
G |------------------------------------------(0)---|
D |-------2----------------------------------------|
A |-------x----------------------------------------|
F#|-0-----0-----2~---(2)-0--------2~---------------|



Interlude:
E |------------------------------------------------|
B |------------------------------------------------|
G |-------------12-------12------------------------|
D |-------------x--------x-------------------------|
A |-------11----11----11-11------------------------|
F#|/13----------------13-13------------------------|
+
E |------------------------------------------------|
B |------------------------------------------------|
G |-------------9--------9-------------------------|
D |-------------x--------x-------------------------|
A |-------8-----8-----8--8-------------------------|
F#|-10----------------10-10------------------------|



Finale:
E |------------------------------------------------|
B |------------------------------------------------|
G |-6-----6-----6-----6--6-----6-----6-----6--6--6-|
D |-4-----4-----4-----4--4-----4-----4-----4--4--4-|
A |-x-----x-----x-----x--x-----x-----x-----x--x--x-|
F#|-5-----5-----5-----5--5-----5-----5-----5--5--5-|
+
Final Bar:
E |------------------------------------------------|
B |------------------------------------------------|
G |-6----------------------------------------------|
D |-4----------------------------------------------|
A |-x----------------------------------------------|
F#|-5----------------------------------------------|



Alternate chord shapes for Finale:
E |------------------------------------------------|
B |---------------------------------------7--------|
G |-6--------6----------------------------6--------|
D |-4---or---4---or---arranged for keys---4--------|
A |-6--------4----------------------------x--------|
F#|-5--------5----------------------------5--------|



Song Structure:
Intro (@ 0:09)
Verse x 2
Chorus x 2
Verse x 2
Chorus x 2
Interlude x 4
Finale x 5
Final Bar



That's it.  Please leave any comments, questions, or requests.  Cheers!
-Bennyshambles78-


Tap to rate this tab
# A B C D E F G H I J K L M N O P Q R S T U V W X Y Z