Song name
# A B C D E F G H I J K L M N O P Q R S T U V W X Y Z

Unwound - New Energy tab

Artist: Unwound
Song: "New Energy"
Album: The Future of What (1995)



Tuning: Standard



Intro/Chorus:
E|-10----------10----------10----10----------10----------10---||
B|-11----------11----------11----11----------11----------11---||
G|-12----------12----------12----12----------12----------12---|| x 2
D|-------0-----------0--------0--------0-----------0--------0-||
A|------------------------------------------------------------||
G|------------------------------------------------------------||



Interlude:
E|---------(0)---------------------(0)------------------------|
B|---------0-----------------------0--------------------------|
G|--------4-----------------------4---------------------------|
D|-0----(0)---------------------(0)---------------------------|
A|------------------------------------------------------------|
G|------------------------------------------------------------|
+
E|---(0)---------------------------(0)------------------------|
B|---0-----------------------------0--------------------------|
G|--4-----------------------------4---------------------------|
D|(0)---------------------------(0)---------------------------|
A|--------------------------------------------------------x\--|
G|--------------------------------------------------------x\--|



Verse:
E|------------------------------------------------------------||
B|------------------------------------------------------------||
G|-8-----8-----8-----8-----xxxx--8-----8-----8-----8-----xxxx-|| x 2
D|-0-----0-----0-----0----<8987>-0-----0-----0-----0----<8987>||
A|------------------------------------------------------------||
G|------------------------------------------------------------||
+
E|------------------------------------------------------------||
B|-10----------10----------10----10----------10----------10---||
G|-10----------10----------10----10----------10----------10---|| x 2
D|-10----------10----------10----10----------10----------10---||
A|-------0-----------0--------0--------0-----------0--------0-||
G|------------------------------------------------------------||



Outro:
E|------------------------------------------------------------||
B|-12----10----12----10----12-10-12----10----12----10----12-10||
G|-12----10----12----10----12-10-12----10----12----10----12-10|| x 2
D|-12----10----12----10----12-10-12----10----12----10----12-10||
A|-------0-----------0--------0--------0-----------0--------0-||
G|------------------------------------------------------------||
+
  * let ring
E|------------------------------------------------------------|
B|------------------------------------------------------------|
G|------------------------------------------------------------|
D|------------------------------------------------------------|
A|-0----------------------------------------------------------|
G|------------------------------------------------------------|



Song Structure:
Intro
Interlude
Verse
Chorus
Interlude
Verse
Chorus
Interlude
Verse
Outro



That's it.  Feel free to leave any comment, questions, or requests.  Cheers!
-Bennyshambles78-


Tap to rate this tab
# A B C D E F G H I J K L M N O P Q R S T U V W X Y Z