Song name
# A B C D E F G H I J K L M N O P Q R S T U V W X Y Z

Unwound - Lady Elect tab

Artist: Unwound
Song: "Lady Elect"
Album: Repetition (1996)



Tuning: G A D G B E



Intro/Verse:
e|---------------------------------------------(0)|
B|----------------------------2-----3-----2-p0--0-|
G|-4--4--4--4--4--4--4--4--4--4-----4-----4-----4-|
D|-4--4--4--4--4--4--4--4--4----------------------|
A|-0--0--0--0--0--2-p0--0--0----------------------|
G|------------------------------------------------|



Pre-Chorus:
e|------------(0)------(0)------(0)------(0)------|
B|-------3-p0--0--3-p0--0--3-p0--0--3-p0--0--3-p0-|
G|-5-(5)-5-----5--5-----5--5-----5--5-----5--5----|
D|-5-(5)-5-----5--5-----5--5-----5--5-----5--5----|
A|-0----------------------------------------------|
G|------------------------------------------------|
+
e|------------(0)------(0)------(0)------(0)------|
B|-------3-p0--0--3-p0--0--3-p0--0--3-p0--0--3--0-|
G|-5-(5)-5-----5--5-----5--5-----5--5-----5--5-(5)|
D|-5-(5)-5-----5--5-----5--5-----5--5-----5--5-(5)|
A|-x----------------------------------------------|
G|-0----------------------------------------------|



Chorus:
e|---------------------------(0)(0)(0)(0)(0)(0)(0)|
B|-5-----5--5--5-----5--5-----5--5--5--5--5--5--5-|
G|-5-----5--5--5-----5--5-----5--5--5--5--5--5--5-|
D|-7-----7--7--7-----7--7-----7--7--7--7--7--7--7-|
A|-0--------------------0-------------------------|
G|------------------------------------------------|
+
e|------------------------------------------------|
B|-8-----8--8--8-----8--7-----7--7--7--7--8--7--8-|
G|-0-----0--0--0-----0--0-----0--0--0--0--0--0--0-|
D|-x-----x--x--x-----x--x-----x--x--x--x--x--x--x-|
A|-7-----7--7--7-----7--7-----7--7--7--7--7--7--7-|
G|------------------------------------------------|
+
e|------------------------------------------------|
B|------------------------------------------------|
G|-------12-12-12-------------12----12-------12-12|
D|-------0--0--0--------------0-----0--------0--0-|
A|-------x--x--x--------------x-----x--------x--x-|
G|-12----12-12-12-------12----12-12-12----12-12-12|
+
e|------------------------------------------------|
B|-------10----10-------------10----10----10-10-10|
G|-------12----12-------------12----12----12-12-12|
D|-------0-----0--------------0-----0-----0--0--0-|
A|-------x-----x--------------x-----x-----x--x--x-|
G|-11----11-11-11----11-11----11-11-11-11-11-11-11|



Bridge:
e|------------------------------------------------|
B|------------------------------------------------|
G|-7-----------7-----7--7-----7--7--7--7--7--7--7-|
D|-0-----9-----9-----9--10----10-10-10-10-10-10-9-|
A|(0)---------(0)------------(0)------------------|
G|------------------------------------------------|
+
e|------------------------------------------------|
B|------------------------------------------------|
G|-------7--7--7-----7--7-----7--7--7--7--7--7----|
D|-------x--x--x-----x--x-----x--x--x--x--x--x--0-|
A|-9-----9--9--9-----9--10----10-10-10-10-10-9--0-|
G|------------------------------------------------|
+
e|------------------------------------------------|
B|------------------------------------------------|
G|-------------0--------------------0-------------|
D|-------7--------------------7-----------7--7----|
A|(5)------------------(5)------------------------|
G|-0--------------------0-------------------------|
+
e|------------------------------------------------|
B|------------------------------------------------|
G|/12----12----12-12-12\11----11-11-11-11-11-11-11|
D|/14-------14-14-14-14\12----12-12-12-12-12-12-12|
A|------------------------------------------------|
G|------------------------------------------------|



Outro:
e|------------------------------------------------|
B|------------------------------------------------|
G|-------------4--------2-----0-----------0-----0-|
D|-------------------0--------------4--------4----|
A|------------------------------------------------|
G|-4----------------------------------------------|
+
e|------------------------------------------------|
B|-------------3--------0-------------------------|
G|----------------------------------------0-----0-|
D|------(4)---------(4)-------------4--------4----|
A|------------------------------------------------|
G|-0----------------------------------------------|
+
e|------------------------------------------------|
B|---------------------(0)------------------------|
G|-------------4--------2-----0-----------0-----0-|
D|-------------------0--------------4--------4----|
A|------------------------------------------------|
G|-4----------------------------------------------|
+
e|------------------------------------------------|
B|------------------------------------------------|
G|-------------0--------------------0-----------0-|
D|-------2--------------------2--------------2----|
A|------------------------------------------------|
G|-2--------------------2-------------------------|
+
e|------------------------------------------------|
B|-------------5--------3--------------3-----0----|
G|-------------------------------5--------5-----5-|
D|------------------------------------------------|
A|------------------------------------------------|
G|-5----------------------------------------------|



Final Bar:
e|------------------------------------------------|
B|-3----------------------------------------------|
G|-0----------------------------------------------|
D|-0----------------------------------------------|
A|-x----------------------------------------------|
G|-4----------------------------------------------|



Song Structure:
Intro x 4
Pre-Chorus
Verse x 4
Pre-Chorus x 2
Chorus x 2
Pre-Chorus x 2
Verse x 4
Pre-Chorus x 2
Chorus x 2
Bridge x 2
Pre-Chorus x 4
Outro x 4
Final Bar



That's it.  Please leave any comments, questions, or requests.  Cheers!
-Bennyshambles78-


Tap to rate this tab
# A B C D E F G H I J K L M N O P Q R S T U V W X Y Z