Song name
# A B C D E F G H I J K L M N O P Q R S T U V W X Y Z

Unwriting A Tragedy - Maybe One Day tab

for my band. www.myspace.com/johnkillskittens

----------------------------------------------------------|
----3----3---3--3---3----3---3--3----1---1----------------|
----0h2--0---0--0-0-2----2-2-0--0-0--0---0-0--------------|
------------------0--------0------2----2---2--------------|
---------------2------0-------2------3--------------------|
----2----2---3------2--------0----------------------------|

--------------------------------------------------------------|
--1----1--------1---1---------0--0--------3--3----------------|
--2----2-2------0---0-0-------0--0-0------0--0(2x)------------|
----2----2-(2x)---2---2--(2x)------0-(2x)---------------------|
--0-------------3---------------2-----------0-----------------|
------------------------------3-----------2-------------------|
Tap to rate this tab
# A B C D E F G H I J K L M N O P Q R S T U V W X Y Z