Song name
# A B C D E F G H I J K L M N O P Q R S T U V W X Y Z

Unwriting A Tragedy - Baby Youre Mine chords

Highlighted       Show chord diagrams
FOR A GREAT BAND! CHECK HIM OUT! :) http://www.myspace.com/unwritingatragedy


--------(let each high note ring)--------------------------------------------|
----1---------------------1--------------------------------------------------|
---0---------------------2----------------------------2----------------------|
--2---------------------2----------------------------3-----------------------|
-3---------------------0----------------------------3------------------------|
---------------------------------------------------1-------------------------|
whats it like to be... the only girl that i see... in a crowded room

-------------------|
-------------------|
----0--------------|
---0---------------|
--2----------------|
-3-----------------|
its only you and me... (repeat chords and how theyre played for the chorus)
C                Am                F G
and only you can take my pain away,
C                Am               F   G     C 
and only you can make me feel the way i do, when Im with you

now he starts to strum

C                               Am                     F G                
and the stars they shine for you, and everything you do
C                         Am                    F  G
and the lights on broadway, are jealous of the way, you shine


for this chorus keep strumming like the second verse

C                Am                F G
and only you can take my pain away,
C                Am               F   G     C 
and only you can make me feel the way i do, when Im with you

now he strums once and lets them ring through the rest of the song

C.... Am.... F.... G....

C....                Am....                     F....              G....       
Whats it like to be, the only girl that i see? in a crowded room, its only you and me, 
C....                         Am....                  F.... G.... 
and the stars the shine for you, and everything you do, 
C....                    Am....                 F....   G...
and the lights on broadway, are jealous of the way, you shine,
C....  Am.... F.... G.... C
      and baby,           you're mine

well thats it! if you're having any trouble learning this then go listen and you 
should catch on really easy its a easy song. I'm just a terrible teacher and bad 
at explaining things :p
Tap to rate this tab
# A B C D E F G H I J K L M N O P Q R S T U V W X Y Z