Song name
# A B C D E F G H I J K L M N O P Q R S T U V W X Y Z

Unwritten Law - Lost Control tab

Help us improve GuitareTab! Take a short survey!
Not sure but this is pretty close, u can figure the rest out for urselves...if u got
some solutions in standard tuning email me at yochampaigne@earthlink.net
Unwritten Law
Song: Lost Control
Album: Here's to the Morning

Standard Tuning

Intro

e:-------------------------  -----                          -----|
B:-------------------------  -----                          -----|
G:-------------------------X3----- Repeat but change end to -----|
D:-------------------------  -5-7-                          -5-9-|
A:-------------------------  -5-7-                          -5-9-|
E:0-0-0-0-0-0-0-10-12-10-12  -3-5-                          -3-7-|

Verse

e:----------|
B:----------|
G:----5-----|
D:2-5-5-7-9-|X2
A:2-5-3-7-9-|
E:0-3---5-7-|
"Your a problem child...but i dont know how"
  Listen for strumming

Chorus

e:----------------------|
B:----------------------|
G:----5----------5------|
D:2-5-5-7-9--2-5-5-7-11-|
A:2-5-3-7-9--2-5-3-7-11-|
E:0-3---5-7--0-3---5-9--|
"Woah oh, Woah oh...and i won't be around"

Repeat Verse
"Don't Wanna Change U girl...cuz this time i won't be around"

Repeat Chorus
"Woah oh, Woah oh...and i won't be around"

Bridge is just like intro

Repeat Chorus
"Woah oh, Woah oh...and i won't be around"
Related for Lost Control tab