Guitaretab - guitar tabs
Song name
# A B C D E F G H I J K L M N O P Q R S T U V W X Y Z

Unwritten Law - Rescue Me Acoustic tab

Band: Unwritten Law
Song: Rescue Me
Album: Music from the High Places
Tabber: ownedoprhan
Standard Tuning


this is the intro and wherever else it plays
E|------0---------------|
B|------0---------------|
G|----------------------|
D|--2-2-----------------|
A|--2-2----2233220022---|
E|--0-0-----------------|

the verse goes like this
E|------0-------------------3-----------------0-------------------0--------------|
B|------0-------------------3-----------------0-------------------0--------------|
G|------------------------------------------2------------------------------------|
D|--2-2-----------------5-5-----------------2-----------------2-2----------------|
A|--2-2----2233220022---5-5----2233220022---0----2233220022---2-2----2233220022--|
E|--0-0-----------------3-3-----------------------------------0-0----------------|



[ Tab from: http://www.guitaretab.com/u/unwritten-law/154209.html ]
im having trouble with the chorus but it goes almost like this
E|------0-------------------3-----------------0-------------------0--------------|
B|------0-------------------3-----------------0-------------------0--------------|
G|------------------------------------------2------------------------------------|
D|--2-2-----------------5-5-----------------2-----------------2-2----------------|
A|--2-2----2233220022---5-5----2233220022---0----2233220022---2-2----2233220022--|
E|--0-0-----------------3-3-----------------------------------0-0----------------|
for the end basically play the intro then just finish like 
------------------------------------    
------------------------------------  
------------------------------------   
--00--------------------------------   
--00--------------------------------   
--00--------------------------------   

rate, okay, im cool, youre not
Related for Rescue Me Acoustic tab
Rescue Me Acoustic chords by Unwritten Law