Song name
# A B C D E F G H I J K L M N O P Q R S T U V W X Y Z

Unwritten Law - Raleigh Vi tab

Standard tuning

Brett x


------------3-------------------3----------------------3---------3-----------|
--------------3-------------------3----------------------3---------3---------|
----------------0-------------------0----------------------0---------0-------|
---------------------------------------0--------0----0---------0-----------0-|
-0-2h0---------------0-2h0----------------0h2p0----3---------2---------2p0---|
-------2-3--------2--------2-0-----------------------------------------------|


-3----------|
---3--------|
-----0------|
----------0-|
------------|
--------2---|
Tap to rate this tab
 
# A B C D E F G H I J K L M N O P Q R S T U V W X Y Z