Song name
# A B C D E F G H I J K L M N O P Q R S T U V W X Y Z

Unwritten Law - Elva Acoustic tab

			     Elva - Unwritten Law
-------------------------------------------------------------------------------

Compiled & Edited by Cameron Payne

This tab has been put together from various
versions found on the internet.  It is the 
closest tab I've seen to the acoustic version
on Music In High Places for one guitar.  
Please rate & post any corrections or comments!! :D

Tuning: Half-Step Down (Eb Ab Db Gb Bb Eb)

Into/Outro

eb|------------------------------------------------------32-------------------|
Bb|----------------------1--3-333------------------------33-------------------|
Gb|---2/4/2-0------0-----0--0-000------2/4/2-0------0-------------------------|
Db|------------------2-------------------------------2----------2/4-0---------|
Ab|--------------3------------------------------------------------------------|
Eb|----------------------------------------------0----------------------------|
                                                         
                                                          >--PLAY WITH OUTRO--<
eb|-------------------------------------------32----------|--32--3~2----------|
Bb|-----------1--3-333------------------------33----------|--33--3~3-let ring-|
Gb|---0-------0--0-000------2/4/2-0------0----------------|-------------------|
Db|-----2---------------------------------2--------2/4-0--|-------------------|
Ab|-3-----------------------------------------------------|-------------------|
Eb|-----------------------------------0-------------------|-------------------|

Verse

   C                                    Em
eb|---0~------------------------------|---0~--------------------------------|
Bb|---1~------------------------------|---0~--------------------------------|
Gb|---0~------------------------------|---0~--------------------------------|
Db|-2-2~------------------------------|-2-2~--------------------------------|  
Ab|-3-3~------------------------------|-2-2~--------------------------------|
Eb|---0~------------------------------|---0~--------------------------------|

  C                                D    Em
eb|---0----------------------------220|---0~--------------------------------|
Bb|---1----------------------------330|---0~--------------------------------|
Gb|---0----------------------------220|---0~--------------------------------|
Db|-2-2------------------------------0|-2-2~--------------------------------|  
Ab|-3-3------------------------------0|-2-2~--------------------------------|
Eb|---0------------------------------0|---0~--------------------------------| 

Chorus

        G                               Asus4            Cadd9              
eb|-----3333--------------------------|-33---------------33-----------------|
Bb|-----3333--------------------------|-33---------------33-----------------|
Gb|-----0000--------------------------|-22---------------00-----------------|
Db|-----0000--------------------------|-22---------------22-----------------|
Ab|-----2222--------------------------|-00---------------33-----------------|
Eb|-----3333--------------------------|-00---------------00-----------------|

   Em7                                  Em7                                 
eb|-----3-----------------------------|-----3-------------------------------|
Bb|-----3-----------------------------|-----3-------------------------------|
Gb|-----------------------------------|-------------------------------------|
Db|-22--------------------------------|-22----------------------------------|
Ab|-22--------------------------------|-22----------------------------------|
Eb|-----------------------------------|-------------------------------------|

        G                               Asus4            Cadd9              
eb|-----3333--------------------------|-33---------------33-----------------|
Bb|-----3333--------------------------|-33---------------33-----------------|
Gb|-----0000--------------------------|-22---------------00-----------------|
Db|-----0000--------------------------|-22---------------22-----------------|
Ab|-----2222--------------------------|-00---------------33-----------------|
Eb|-----3333--------------------------|-00---------------00-----------------|

    Em7                                 Em7                                 
eb|-----3-----------------------------|-----3-------------------------------|
Bb|-----3-----------------------------|-----3-------------------------------|
Gb|-----------------------------------|-------------------------------------|
Db|-22--------------------------------|-22----------------------------------|
Ab|-22--------------------------------|-22----------------------------------|
Eb|-----------------------------------|-------------------------------------|

    D                           Em      D                             Em
eb|-2-----2~-----------------------0--|-2-----2~-------------------------0--|
Bb|-3-----3~-----------------------0--|-3-----3~-------------------------0--|
Gb|-2-----2~--------------------------|-2-----2~----------------------------|
Db|-----------------------------22----|-------------------------------22----|
Ab|-----------------------------22----|-------------------------------22----|
Eb|-----------------------------------|-------------------------------------|

    D                           Em    >---------X2 FOR LAST CHORUS----------<	    		
eb|-2-----2~-----------------------0--|-------------------------------------|
Bb|-3-----3~-----------------------0--|------1---------0----------1~--------|
Gb|-2-----2~--------------------------|--------2---------0----------0~------|
Db|-----------------------------22----|----2-----0---0-----0----2-----2~----|
Ab|-----------------------------22----|--0---------2----------3~------------|
Eb|-----------------------------------|-------------------------------------|

  >--------X2 FOR LAST CHORUS---------<
eb|--------------------------0~-------|
Bb|------1---------0---------1~-------|
Gb|--------0---------0-------0~-------|
Db|----2-----0---0-----0-----2~-------|
Ab|--0---------2-------------3~-------|
Eb|--------------------------3~-------|

Play intro, verse, and chorus x2

Then play intro x2 while this solo is played over the top:

eb|------------------------------------------------------------------|
Bb|-------8-10-8-10b10r--10b10r--10b10b10r---8--10--[10b]10rp87---7--|
Gb|--7/9------------------------------------------------------------7|
Db|------------------------------------------------------------------|
Ab|------------------------------------------------------------------|
Eb|------------------------------------------------------------------|


eb|------------------------------------------------------------------|
Bb|--8p7----10p7---8p7---10p7----8p7-----10/12--10---87--------------|
Gb|-------7-------7-----7------7------7-----------------7---7/9---97-|
Db|------------------------------------------------------------------|
Ab|------------------------------------------------------------------|
Eb|------------------------------------------------------------------|


eb|------------------------------------------------------------------|
Bb|------------------------------------------------------------------|
Gb|------------------------------------------7/9--9------------------|
Db|--7b7b7b--5p7/97---54-----------5--7--5---------------------------|
Ab|---------------------------5---7----------------------------------|
Eb|------------------------------------------------------------------|

Then play chorus and outro x1




Tap to rate this tab
# A B C D E F G H I J K L M N O P Q R S T U V W X Y Z