Song name
# A B C D E F G H I J K L M N O P Q R S T U V W X Y Z

Unwritten Law - Sing tab

-------------------------------------------------------------------------------
			     SING  Unwritten Law
-------------------------------------------------------------------------------
Tabbed by: mark
Email: erabkram@mail.com

Tuning: Standard	Capo 3


Sorry it's not the complete song, but it'll get you started.  And if you DON't have a 
capo, you can play around with a C chord and get pretty close.


e|---------------------------------------------------------------------------|
B|------------------------------0--------------------------------------------|
G|------------2----------2--------------2------2-----------------------------|
D|---------2------2----------2--------------2--------------------------------|
A|-(0)-0-------------0-----------0-------------------------------------------|
E|-(0)-----------------------------------------------------------------------|

e|---------------------------------------------------------------------------|
B|-----------------------------------------0------------------0--------------|
G|-------2------2------2------2---------2-----2-----2------2-----2-----2-----|
D|-----2-------2------2------2------0------------0-------0-----------0-------|
A|-0-------------------------------------------------------------------------|
E|---------4------2------0---------------------------------------------------|
Tap to rate this tab
 
# A B C D E F G H I J K L M N O P Q R S T U V W X Y Z