Guitaretab - guitar tabs
Song name
# A B C D E F G H I J K L M N O P Q R S T U V W X Y Z

Unwritten Law - Harmonic tab

Email: Bransden69@hotmail.com

~ - Let Ring

 ------------------------------------------
 ------------------------------------------
 ------------------------------------------
 ------------------0~--0-------------------
 -----0~--0-----5~-------5~----------------
 --5~-------5------------------------------

 ----------------------------------------------------------
 ----------------------------------------------------------
 ----------------------------------------------------------
 ----7----7---7----7----7---7----7----7---7----7----7---7--
 -55---55---5---55---55---5--------------------------------
 -----------------------------00---00---0---00---00---0----
PM__   __   _   __   __   _   __   __   _   __   __   _
[ Tab from: http://www.guitaretab.com/u/unwritten-law/30955.html ]
 ------------------------------------------------------------
 ------------------------------------------------------------
 ---------------------------------------12~---------12-------
 ----7----7---7----7----7---7-------12~----12~--------12--12-
 ----------------------------------------------12~------12---
 -33---33---3---33---33---3------------------12~-------------
PM__   __   _   __   __   _

 --------------------------------------------------------
 --------------------------------------------------------
 -7-7777777777777777-7~----------------------------------
 -7-7777777777777777-7~--2~--555555555-------------------
 -5-5555555555555555-5~--2~--555555555-------------------
 ------------------------0~--333333333-------------------
PM  ________
 
 -----------------------------------------------
 -----------------------------------------------
 -33333335555555-------------------------------- 
 -33333335555555--------------------------------
 -11111113333333--------------------------------
 -----------------------------------------------
Related for Harmonic tab
Harmonic chords by Unwritten Law