Song name
# A B C D E F G H I J K L M N O P Q R S T U V W X Y Z

Unwritten Law - Sound Siren tab

Help us improve GuitareTab! Take a short survey!
Unwritten Law - sound siren
Tabbed By: Ryan Dykton
EMail: smallbeans54@cs.comtabbed by ryan dykton
-------------------------------------------------------------------------------------!!
-------------------------------------------------------------------------------------!!
-------------5-5---------------------5-5---------------------5-5-------------------5-!!
-5-5-x-x-x-x-5-5-x-x-x-x-5-5-x-x-x-x-5-5-x-x-x-x-5-5-x-x-x-x-5-5-x-x-x-x-5-5-x-x-x-5-!!
-5-5-x-x-x-x-3-3-x-x-x-x-5-5-x-x-x-x-3-3-x-x-x-x-5-5-x-x-x-x-3-3-x-x-x-x-5-5-x-x-x-3-!!
-3-3-x-x-x-x-----x-x-x-x-3-3-x-x-x-x-----x-x-x-x-3-3-x-x-x-x-----x-x-x-x-3-3-x-x-x---!!
repeat ike two times i guess then

----------------------------!!
----------------------------!!
-0-4-5-4-0-4-5-0------------!!
----------------------------!!
----------------------------!!
----------------------------!!
sry i dont know the rest ill figure it out but i wanted to post 
this e mail me if you have problems ok? smallbeans54@cs.com
see ya l8er
Related for Sound Siren tab