Guitaretab - guitar tabs
Song name
# A B C D E F G H I J K L M N O P Q R S T U V W X Y Z

Unwritten Law - She Says Acoustic tab

this is an awesome song from an even awesomer band. and im pretty sure im right with 
i got. figure out the strumming on your own.

intro and verse


--3--3--5--3-------------------------------------------------------|
--3--3--5--3-------------------------------------------------------|
--0--0--0--0-------------------------------------------------------|
--2--2--0--0-------------------------------------------------------|
--2--3--4--x-------------------------------------------------------|
--x--x--5--3-------------------------------------------------------|

play this thall through out the verse, but on the fourth time trough it play...
[ Tab from: http://www.guitaretab.com/u/unwritten-law/57565.html ]
--3--3--5--3-3-3----------------------------------------------------|
--3--3--5--3-3-3----------------------------------------------------|
--0--0--0--0-0-0----------------------------------------------------|
--2--2--0--0-0-0----------------------------------------------------|
--2--3--4--x-x-x----------------------------------------------------|
--x--x--5--3-2-0----------------------------------------------------|

on the chorus play..

--3/-5/-3/-2---------------------------------------------------------------|
--3/-5/-3/-2---------------------------------------------------------------|
--4/-6/-4/-3---------------------------------------------------------------|
--5/-7/-5/-4---------------------------------------------------------------|
--5/-7/-3/-4---------------------------------------------------------------|
--3/-5/-3/-2---------------------------------------------------------------|

thats all i got now. ill finish later. email for comments,
smeagolman@hotmail.com
Related for She Says Acoustic tab
She Says Acoustic chords by Unwritten Law